Twitter do SuperGospel Facebook do SuperGospel RSS - SuperGospel

Matérias em destaque




Ainda que a figueira (Cifra)
Fernandinho


Intro:  F#m   A   E

F#m           E
Tu és a minha porção
Bm       D
Tu es minha herança
F#m        E               Bm            D
Tu és o meu socorro nos dias de tribulação

A                  E
Mesmo que os meus pais me deixem
Bm           D
Mesmo que amigos me traiam
A                   E            Bm         D
Eu sei que em seus braços eu encontro salvação

  A                   E
Ainda que a figueira não floreça
  Bm                     D
Ainda que a videira não der o seu fruto
  A                    E
Mesmo que não haja alimento nos campos
       G           D
Eu me alegrarei em Ti

SOLO base: Bm A E (2x) Bm A (2x) D 

D-2/4---2/4---2/4-----------
G|-----2-----2-----2--2/4-2--   (2x)
B|---------------------------
E|---------------------------

D|--------------------------
G-9----------------9-11----   
B|---10-12b-12-10-9---------
E|--------------------------

D|---------------------------
G-9---------------------11--   
B|---10------------10-9------
E|------9--10b-9-------------

___________________________________________________________________
Colaboração: Pedro Luiz Cortez Santos - p3dr0c0rt3z@hotmail.com 

><> Supergospel.com.br - O portal da música gospel

 RECURSOS    Corrigir música | Versão para impressão | Indicar a um amigo | Compre este CD
Fique ligado no que acontece no Super Gospel: Siga-nos no Twitter, receba atualizações via RSS ou e-mail.
Copyright - 2001 - 2011 Supergospel. Todos os direitos reservados.