Twitter do SuperGospel Facebook do SuperGospel RSS - SuperGospel

Matérias em destaque




Nova criatura (Tablatura de guitarra / violão)
Kleber Lucas


Solo com o teclado, guitarra e baixo.

E|-------------------------------------------------------------------|
B|-------------------------------------------------------------------|
G|-------------------------------------------------------------------|
D|-------------------------------------------------------------------|
A|-------------------------------------------------------------------|
E|-7-7-10-7-10s12-10-12-14-14-13-13-12-12-11-10--7-7-10-7-10s12-10~~-|


Solo da guitarra: 
 
E|------------------------------------------------| 
B|-8-9-10-11-12--12b14~--4/6-7-9-7-6--------------| 
G|----------------------------------6--8/10--6-6~-| 
D|-----------------------------------6------------| 
A|------------------------------------------------| 
E|------------------------------------------------| 
 
E|------6-8-9-9-7-5-4-7-5-4-------------| 
B|-6-7-9-------------------7-5-7b9-5-5~-| 
G|--------------------------------------| 
D|--------------------------------------| 
A|--------------------------------------| 
E|--------------------------------------| 
 
E|----4-5-7-5-7-9-7-9-11-9-11-12-11-12-14-12-14-16-14-16-17-| 
B|-5-7------------------------------------------------------| 
G|----------------------------------------------------------| 
D|----------------------------------------------------------| 
A|----------------------------------------------------------| 
E|----------------------------------------------------------| 
 
E|-16-17-19-17-19-19b21-19b21-19b21-19b21~~-|| 
B|------------------------------------------|| 
G|------------------------------------------|| 
D|------------------------------------------|| 
A|------------------------------------------|| 
E|------------------------------------------||

___________________________________________________________________
Colaboração: Mauricio J. Frigo - frigo.r@terra.com.br 

><> Supergospel.com.br - O portal da música gospel

Também para esta música: Cifra

 RECURSOS    Corrigir música | Versão para impressão | Indicar a um amigo | Compre este CD
Fique ligado no que acontece no Super Gospel: Siga-nos no Twitter, receba atualizações via RSS ou e-mail.
Copyright - 2001 - 2011 Supergospel. Todos os direitos reservados.