Twitter do SuperGospel Facebook do SuperGospel RSS - SuperGospel

Matérias em destaque



Há poder neste nome (Tablatura de guitarra / violão)
Atmosfera de Adoração


E

E|----7-------------------------------------------------------------------------------------------------|
B|-------7-9-9--9-7-----7--9--10-10-10--9-10-----9-10-12--12---14-16-17-17-17---------------------------|
G|--------------------9------------------------------------------------------------------------14-14----|
D|------------------------------------------------------------------------------------------------------|
A|------------------------------------------------------------------------------------------------------|
E|------------------------------------------------------------------------------------------------------|
 

E|------------------------------------------------------------------------------------------------------|
B|--7-9-10--9------------9-10-12-10-9----------------------------------- -------------------------------|
G|-----------------9-11-----------------------8-9-11-11-8----------6--6-8-------------------------------|
D|--------------------------------------------------------------9--9-------------9----------------------|
A|------------------------------------------------------------------------------------------------------|
E|------------------------------------------------------------------------------------------------------|


E|-------------9-11-12-14-14-14-------------------------------------------------------------------------|
B|----7-9-10--------------------------------------------------------------------------------------------|
G|------------------------------------------------------------------------------------------------------|
D|------------------------------------------------------------------------------------------------------|
A|------------------------------------------------------------------------------------------------------|
E|------------------------------------------------------------------------------------------------------|

___________________________________________________________________
Colaboração: Gledson Stols Teixeira - greg_ieq@yahoo.com.br 

><> Supergospel.com.br - O portal da música gospel

Também para esta música: Cifra

 RECURSOS    Corrigir música | Versão para impressão | Indicar a um amigo | Compre este CD
Fique ligado no que acontece no Super Gospel: Siga-nos no Twitter, receba atualizações via RSS ou e-mail.
Copyright - 2001 - 2011 Supergospel. Todos os direitos reservados.