Twitter do SuperGospel Facebook do SuperGospel RSS - SuperGospel

Matérias em destaque




500 graus (Tablatura de guitarra / violão)
Cassiane


Solo:

e---------------------------------------|
B--8-7-8-7-10-10-7-8----8-8-8-8-7-------|
G---------------------------------9-7-9-|
D---------------------------------------|
A---------------------------------------|
E---------------------------------------|


e-------------------------------------|
B------------7-8----------------------|
G--------7-9-----7-----9-7-9-7--------|
D----7-9------------------------9-7-9-|
A--9----------------------------------|
E-------------------------------------|

essa parte toca-se bem rápido, como no original.
e------------------------------------------------|
B--11-9----9----9-9-7---7----7-5---5-------------|
G-------11------------9----------7------9-7----7-|
D-------------------------------------------10---|
A------------------------------------------------|
E------------------------------------------------|

Na última parte deve-se levar em conta que no original
podem ter sido usados efeitos de estúdio, e além disso
o músico é profissional, mas toque várias vezes a mesma
nota para dar uma impressão parecida, ok?

___________________________________________________________________
Colaboração: Paulo Magdiel de Paula Cordeiro - paulomagdiel@ig.com.br 

><> Supergospel.com.br - O portal da música gospel

Também para esta música: Cifra

 RECURSOS    Corrigir música | Versão para impressão | Indicar a um amigo | Compre este CD
Fique ligado no que acontece no Super Gospel: Siga-nos no Twitter, receba atualizações via RSS ou e-mail.
Copyright - 2001 - 2011 Supergospel. Todos os direitos reservados.