Twitter do SuperGospel Facebook do SuperGospel RSS - SuperGospel

Matérias em destaque




Faz Chover (Tablatura de guitarra / violão)
Fernandinho


Solo: (7:42)    
                       
   
          Bm         G                     
e|-----------------------------------------------------|
B|-12-14-14b(1/2)--------------------------------------|
G|----------------11-12-D|-----------------------------|
A|-----------------------------------------------------|
E|-----------------------------------------------------|
         D9       A9   Bm          G                 D9             A9             
e|--------------------5------10--9--7-----------------------------------|
B|-------------------------------------10--8-7-------10~~--10h12-10-10~-|
G|-11h12s14-12-11-9~----7--7---7--7--7---7-----7h9s11-------------------|
D|----------------------------------------------------------------------|
A|----------------------------------------------------------------------|
E|----------------------------------------------------------------------|
       G                                  
e|------T----------T----------T----------T----------|
B|-8h10-12-10p8h10-14-10p8h10-15-10p8h10-14-10p8h10-|
G|--------------------------------------------------|
D|--------------------------------------------------|
A|--------------------------------------------------|
E|--------------------------------------------------|
   A9                                             B9         B9 
e|-T-----------T-----------T-----------T-----------T--------------|
B|-14-12p10h12-15-12p10h12-17-12p10h12-15-12p10h12-17~~~---17brb~-|
G|----------------------------------------------------------------|
D|----------------------------------------------------------------|
A|----------------------------------------------------------------|
E|----------------------------------------------------------------|

contact: corvo_dd@hotmail.com  God bless you!!  Dan Costa

___________________________________________________________________
Colaboração: Daniel Costa - dan.biofidio@gmail.com 

><> Supergospel.com.br - O portal da música gospel

 RECURSOS    Corrigir música | Versão para impressão | Indicar a um amigo | Compre este DVD
Fique ligado no que acontece no Super Gospel: Siga-nos no Twitter, receba atualizações via RSS ou e-mail.
Copyright - 2001 - 2011 Supergospel. Todos os direitos reservados.