Twitter do SuperGospel Facebook do SuperGospel RSS - SuperGospel

Matérias em destaque




Seu sangue (Tablatura de guitarra / violão)
Fernandinho


E||12---------------12-------------/24--------------/24---------------
B||--10-12-----10-----10-12----10------10-12-----10----10-12-----10--
G||-------9-11-------------9-11--------------9-11-----------9--11----
D||-----------------------------------------------------------------
A||-----------------------------------------------------------------
E||-----------------------------------------------------------------

Rif 1
E||-----------------------10-9-||
B||-----------10---9-10-9------||      
G||----------------------------||
D||----------------------------||
A||----------------------------||
E||----------------------------||

Solo ( ao final da  parte que é cantada sem instrumento )
---12---------------------------||
-----10-----12--10-9-------10-9-||
-------11-9---13----11-9-11-----||
--------------------------------||
--------------------------------||
--------------------------------||

___________________________________________________________________
Colaboração: michel de queiroz seregatto - michel_skolachado_ahmq@hotmail.com 

><> Supergospel.com.br - O portal da música gospel

Também para esta música: Cifra

 RECURSOS    Corrigir música | Versão para impressão | Indicar a um amigo | Compre este CD
Fique ligado no que acontece no Super Gospel: Siga-nos no Twitter, receba atualizações via RSS ou e-mail.
Copyright - 2001 - 2011 Supergospel. Todos os direitos reservados.