Twitter do SuperGospel Facebook do SuperGospel RSS - SuperGospel

Matérias em destaque




Depois da guerra (Tablatura de guitarra / violão)
Oficina G3


Solo: (02:48)

              Q.      Q.      Q        Q.      Q.      Q     
C ||-------|-----------------------|------------------------|
G ||-------|-----------------15----|--13------12------------|
D#||-------|--9------11------------|------------------12----|
A#||-------|-----------------------|------------------------|
F ||-------|-----------------------|------------------------|
C ||-------|-----------------------|------------------------|


   Q     S   S  E   E  E  Q        Q     E   Q.      Q     
-------------------------------|--------------------------|
-------------------------------|--------------------------|
--14----14s-16-14~--L--L--L----|--12----14--11------------|
-------------------------------|--------------------12----|
-------------------------------|--------------------------|
-------------------------------|--------------------------|


  Q.      Q.     Q       Q.      Q.     E   E      E   E   Q    H         
----------------------|------------------------|-------------------------|
----------------------|------------------------|-------------------------|
--9------11------7----|--9------12------L--12--|--12--14--14----L--------|
----------------------|------------------------|-------------------------|
----------------------|------------------------|-------------------------|
----------------------|------------------------|-------------------------|


   S S  S  S  S  S  S  S  S  S  S  S  S  S  S  S  
-------------------------------------13-12-------|
-------------------13-10----15-12----------15-13-|
--12-9----14-11----------11-------12-------------|
-------10-------12-------------------------------|
-------------------------------------------------|
-------------------------------------------------|


                      |--3--|  |--3--|                                    
   Q      Q     Q     S  S  S  S  S  S     Q      Q     Q     S  S  S  S  
---------------------------------------|--20b----20b----L-----L-22-22-22-|
--13b----13b----L-------------15-17-18-|---------------------------------|
---------------------14-15-17----------|---------------------------------|
---------------------------------------|---------------------------------|
---------------------------------------|---------------------------------|
---------------------------------------|---------------------------------|


   S   S  S  S  S   S  S  S  S   S  S  S  S  S  S S  
--22S-20-20-20-20S-18-18-18-18S-17-17-17-17---------|
--------------------------------------------18-18-L-|
----------------------------------------------------|
----------------------------------------------------|
----------------------------------------------------|
----------------------------------------------------|


                  |--3--|  |--3--|  |--3--|  |--3--|  
   E    E   Q     S  S  S  S  S  S  S  S  S  S  S  S  
-----------------13-10-------------------------------|
--20b--20b--L----------13-10-------13-10-------------|
-----------------------------12-10-------12-10-------|
-----------------------------------------------12-10-|
-----------------------------------------------------|
-----------------------------------------------------|


   S T  T  T  T  S  S T  T  T  T  S  S T  T T  T S  S T  T T  T S  
------------------------------------------------------------------|
------------------------------------------------------------------|
--12---12-10-------12---12-10-------10---10-7------10---10-7------|
-------------12-10------------12-10-----------10-7-----------10-7-|
------------------------------------------------------------------|
------------------------------------------------------------------|


                          |-3-| |-3-| |-3-| |-3-|  
  S T T T T S S T T T T S S S S S S S S S S S S S  
--------------------------------------------------|
--------------------------------------------------|
--7---7-5-----7---7-5-----5-----------5-----------|
----------7-5---------7-5---8-7-5-7-8---8-7-5-7-8-|
--------------------------------------------------|
--------------------------------------------------|


  |--3-| |--3-| |--3-| |--3-| |--3--| |--3--| |--3--| |--3--|  
  S  S S S S  S S  S S S S  S S  S  S S  S  S S  S  S S  S  S  
--------------------------------------------------------------|
--------------------------------------------------------------|
--7-------------7-------------9---------------9---------------|
----10-8-7-8-10---10-8-7-8-10---12-10-8-10-12---12-10-8-10-12-|
--------------------------------------------------------------|
--------------------------------------------------------------|


   |--3--|  |--3--|  |--3--|  |--3--|  |--3--|  |--3--|            
   S  S  S  S  S  S  S  S  S  S  S  S  S  S  S  S  S  S  E    E    
------------------------------------------------------------------|
-----------------------------------------------13-15-17-18b--18b--|
--10----------------12----------------12-14-15--------------------|
-----14-12-10-12-14----15-14-12-14-15-----------------------------|
------------------------------------------------------------------|
------------------------------------------------------------------|


  E   T  T  T  T  T  T  T  T  T  T  T  T     W                    
-----------------13-17-13----------13-17-|--17b~----------------||
--------------15----------15----15-------|----------------------||
-----------14----------------14----------|----------------------||
--------15-------------------------------|----------------------||
-----17----------------------------------|----------------------||
-----------------------------------------|----------------------||




Duration Legend
---------------
W - whole
H - half
Q - quarter
E - 8th
S - 16th
T - 32nd
X - 64th
. - note dotted
|-n-|  - n-tuplets


Tablature Legend
----------------
L - tied note
x - dead note
g - grace note
(n) - ghost note
> - accentuded note
NH - natural harmonic
AH - artificial harmonic
TH - tapped harmonic
SH - semi harmonic
PH - pitch harmonic
h - hammer on
p - pull off
b - bend
br - bendRelease
pb - preBend
pbr - preBendRelease
brb - bendReleaseBend
n/ - tremolo bar dip
n - tremolo bar dive
-/n - tremolo bar Release up
/n - tremolo bar inverted dip
/n - tremolo bar return
-n - tremolo bar Release down
S - shift slide
s - legato slide
/ -  slide into from below or out of upwards
 -  slide into from above or out of downwards
~ - vibrato
W - wide vibrato
tr - trill
TP - tremolo picking
T - tapping
S - slap
P - pop
< - fade in
^ - brush up
v - brush down

___________________________________________________________________
Colaboração: Mauricio J.Frigo - frigo.r@terra.com.br 

><> Supergospel.com.br - O portal da música gospel

 RECURSOS    Corrigir música | Versão para impressão | Indicar a um amigo | Compre este CD
Fique ligado no que acontece no Super Gospel: Siga-nos no Twitter, receba atualizações via RSS ou e-mail.
Copyright - 2001 - 2011 Supergospel. Todos os direitos reservados.