Twitter do SuperGospel Facebook do SuperGospel

Matérias em destaque



Meu legado (Cifra)
Oficina G3


Obs.: Esta música esta transcrita no tom original... porque o cd foi 
      gravado dois  tons abaixo.. afinação C  dó maior 
 
 
rif 1 
E|-------------------------- 
B|-------------------------- 
G|--------------------------repete 
D|----------9-----------7---  X 
A|----------7-----------5--- 
E|---0-0-0-----5-5-7-5------ 
 
 
rif 1 
me julguem desprezem  
pra mim não  importa, 
fiz minha escolha  
a cruz quero viver 
se digo que foi pago  
um alto preço, 
faço disso o meu legado, 
aqui quero deixar as minhas 
marcas ja estou do outro lado 
 
G5               F#5 
 Sem nada tendo muito 
 
rif 1 
 melhor que muito sem ter nada 
 
F#5 G5 F#5             A5 B5 
 Deeeuus o meu muito é voce 
 
rif1 
Falem tentem provar suas opiniões 
tudo que é dito o tempo pode apagar 
mas forte do que toda palavra 
foi o sangue derramado 
a cruz que dividiu minha história 
pode te omstrar o outro lado 
 
 
E|-------------------!-------------------------- 
B|-------------------!-------------------------- 
G|--------9-----7-7--!-7-7-------7-------------- 
D|----------9-9-----9!-----9-7-9---9-7----7-9--- 
A|--7-7-7------------!-----------------10-----10 
E|-------------------!-------------------------- 
 
 
E|---------------------!-------------------- 
B|--------------------8!-8------10-8-------- 
G|--------9-----7-7----!---9-7--------9-7--- 
D|----------9-9-----9--!------------------9- 
A|--7-7-7--------------!-------------------- 
E|---------------------!-------------------- 

___________________________________________________________________
Colaboração: HENRYVM - henry_villafuerte@hotmail.com 

><> Supergospel.com.br - O portal da música gospel

Também para esta música: Tablatura de guitarra | Tablatura de baixo

 RECURSOS    Corrigir música | Versão para impressão | Indicar a um amigo | Compre este CD
Copyright - 2001 - 2018 Supergospel. Todos os direitos reservados.