Twitter do SuperGospel Facebook do SuperGospel

Matérias em destaque



I Wish We'd All Beed Ready (Cifra)
dc Talk


F                                  F7/Eb                        Bb
Life was filled with guns and war, everyone got trampled on the floor

            F   C    Bb C
I wish we'd all been ready

F                                   F7/Eb                             Bb
Children died the days grew cold, a piece of bread could buy a bag of gold

            F   C    Bb C
I wish we'd all been ready

Bb                 F                     F7/Eb            Bb                 F                 
There's no time to change your mind the Son has come and you've been left behind



F                                 F7/Eb                                  Bb
A man and wife asleep in bed, she hears a noise and turns her head, he's gone

            F   C    Bb C
I wish we'd all been ready

F                              F7/Eb                              Bb
Two men walking up a hill, one disappears and one's left standing still

            F   C    Bb C
I wish we'd all been ready

Bb                 F                     F7/Eb            Bb                 F
There's no time to change your mind the Son has come and you've been left behind



    Bb               F               F7/Eb            Bb       
the Father spoke the demons dined, how could you have been so blind



Bb                 F                 F7/Eb              Bb                 F
There's no time to change your mind the Son has come and you've been left behind

E|------------------------|--------------10-8----------|---------------------|
B|--10-10-10-10h11-10-10--|--10-10-10-10------10-8-----|--------8-10-8----8--|
G|------------------------|------------------------10--|--10-10--------10----|
D|------------------------|----------------------------|---------------------|
A|------------------------|----------------------------|---------------------|
E|------------------------|----------------------------|---------------------|


E|------------------------|--------------10-8----------|---------------------|
B|--10-10-10-10h11-10-10--|--10-10-10-10------10-8-----|--------8-10-8----8--|
G|------------------------|------------------------10--|--10-10--------10----|
D|------------------------|----------------------------|---------------------|
A|------------------------|----------------------------|---------------------|
E|------------------------|----------------------------|---------------------|

___________________________________________________________________
Colaboração: Webmaster - contato@supergospel.com.br 

><> Supergospel.com.br - O portal da música gospel

 RECURSOS    Corrigir música | Versão para impressão | Indicar a um amigo
Copyright - 2001 - 2018 Supergospel. Todos os direitos reservados.