Twitter do SuperGospel Facebook do SuperGospel

Matérias em destaque



Razão (Cifra)
Oficina G3


INT ->   RIFF 1 

E--------------------------------------------------------------------
B--------------------------------------------------------------------
G--------------------------------------------------------------------
D--------------------------------------------------------------------
A-------5-4v----------5-4-4-3------------5-4v----------4-------------
E--2-2-3---------2-2-3-------4------2-2-3--------2-2-3---2-----------
 
E--------------------------------------------------------------------
B--------------------------------------------------------------------
G----------7-6v--------7-6-6-5-----------7-6v------------------------
D--12\4-4-5-------4-4-5-------6-----4-4-5----------------------------
A--------------------------------------------------------------------
E--------------------------------------------------------------------
 tem mais algumas coisas,depois eu venho e ponho!

   F#m                         D                          A    
A RAZÃO DE TANTA MORTE, TANTA DESORDEM, DESIGUALDADE E SOLIDÃO
                            B                         E
O CAMINHO DO HOMEM É TÃO ESCURO, DE ATALHOS MAL ESCOLHIDOS
     F#m                          D                       A
A RAZÃO  DO SEU VAZIO, DO SEU SENTIDO DE EXISTIR E PERSISTIR
                         B                           E
DE TAPAR O ERRO DE NÃO CRER, DE QUE VOCÊ PRECISA DE DEUS

F#m            B           A
UM SÓ CAMINHO, UMA SÓ FÉ,  ÚNICA VERDADE 
   D         G            A           B
JESUS É O REFÚGIO NESSA IMENSA TEMPESTADE
F#m            B           A
UM SÓ CAMINHO, UMA SÓ FÉ,  ÚNICA VERDADE 
   D         G            A           B    [ D A | E B | A F#m ]   
JESUS É O REFÚGIO NESSA IMENSA TEMPESTADE

SOLO -> [ F#m A G#7  | A F#m | D E | F#m E | F#m D | A B E ]

___________________________________________________________________
Colaboração: adalberto fraga verissimo jr - juninhog3pg@hotmail.com 

><> Supergospel.com.br - O portal da música gospel

Também para esta música: Tablatura de guitarra

 RECURSOS    Corrigir música | Versão para impressão | Indicar a um amigo | Compre este CD
Copyright - 2001 - 2018 Supergospel. Todos os direitos reservados.