Twitter do SuperGospel Facebook do SuperGospel

Matérias em destaque



Santidade (Cifra)
Aline Barros


Tom: Bb

Intro. solo: 
          E|----13-13-11-11-10-10----13-13-11-10-10----13-13-11-11-10-10-------------------|
          B|---------------------11-----------------11------------------11-----------------|
          G|--------------------------------------------------------------10/12--10--------|
          D|------------------------------------------------------------------------10-----|
          A|---------------------------------------------------------------------------13--|
          E|-------------------------------------------------------------------------------|

         E|--13-13-11-11-10-10----13-13-11-11-10-10---13-13-11-11-10-10----------|
         B|--------------------11-------------------11------------------11-------|
         G|----------------------------------------------------------------10/12-|
         D|----------------------------------------------------------------------|
         A|----------------------------------------------------------------------|
         E|----------------------------------------------------------------------|

Bb 
O MEU MELHOR QUERO TE DAR
Gm                     Eb
ME DERRAMAR AOS TEUS PÉS
Bb 
SER TUA IMAGEM E SEMELHANÇA
Gm             Eb
É O DESEJO DO MEU CORAÇÃO

Cm7            Bb/D 
SE O MEU CORPO ERRAR O CAMINHO 
Eb             F/A 
MEU CORAÇÃO CLAMARÁ POR TI 
Eb                  F/A    Bb
ABRAÇA-ME COM TUA MISERICÓRDIA 
Cm7          Bb/D       Eb        D  F#º                     
VEM ME ENVOLVER, TUA FACE QUERO VER

Bb/G     Bb/F          Eb       Bb/D
QUERO VESTIR AS ROUPAS DA SANTIDADE
Cm7     Bb/D     Eb        D   F#º             
E MERGULHAR NO SANTO DOS SANTOS
Bb/G    Bb/F   Eb  Bb/D 
TENHO SEDE DE DEUS
Cm7        Bb/D   Eb       F           Bb
QUERO CONHECER, QUERO EXALAR MAIS DE DEUS

Bb          
O MEU MEU MELHOR QUERO TE DAR
Gm                     Eb
E ME ENTREGAR AOS TEUS PÉS
Bb      
SER TUA IMAGEM E SEMELHANÇA
Gm             Eb
É O DESEJO DO MEU CORAÇÃO

Cm7            Bb/D 
SE O MEU CORPO ERRAR O CAMINHO 
Eb             F/A 
MEU CORAÇÃO CLAMARÁ POR TI 
Eb                  F/A    Bb
ABRAÇA-ME COM TUA MISERICÓRDIA 
Cm7       Bb/D       Eb         D  F#º                     
VEM ENVOLVER, TUA FACE QUERO VER

___________________________________________________________________
Colaboração: Willian da Silva Chaves Achando - willianfatboy@yahoo.com.br 

><> Supergospel.com.br - O portal da música gospel

 RECURSOS    Corrigir música | Versão para impressão | Indicar a um amigo | Compre este DVD
Copyright - 2001 - 2018 Supergospel. Todos os direitos reservados.