Twitter do SuperGospel Facebook do SuperGospel

Matérias em destaque



Sonhos (Cifra)
Fernanda Brum


E---------------------------|-------------------------
B---------------------------|-------------------------
G---------------------------|-------------------------
D---------------------------|-------------------------
A---2--2----2---2-----------|---2--2----2---2---------
E---0--0----0---0---3---2---|---0--0----0---0---3---2-

E---------------------------|-------------------------
B---------------------------|-------------------------
G---------------------------|-------------------------
D---------------------------|-------------------------
A---2--2----2---2-----------|---2--2----2---2---------
E---0--0----0---0---3---2---|---0--0----0---0---3---2-

E---------------------------|
B--------0---------0--------|
G------0---------0----------|
D---------------------------|
A---------------------------|
E--0---------2--------------|

Versão 2:

INTRO
D|------------------------------------------------------|
A|------------------------------------------------------|
F|--------------------------------------------0-----0---|
C|------------------------------------------2-----4-----|
G|-2-2-2-2-5-4--2-2-2-2-5-4--2-2-2-2-5-4--3-----5-------|
D|-0-0-0-0-3-2--0-0-0-0-3-2--0-0-0-0-3-2----------------| (3x)

RIFF 1            H.A                       H.A       H.A
D|----------------------------------------------------------------------|
A|--------------5-5-5-5---------------------5-------5-5-5-5-------------|
F|----------------------------------------------------------------------|
C|-2----------2---------2-------------2-------2-------------2-----------|
G|-2----------2---------2---5-4-5-7---2-------2-------------2---5-4-5-7-|
D|-0--0-0-3---0---------0---3-2-3-5---0-0-0---0-0-0---------0---3-2-3-5-| (2x)

RIFF 2
D|----------------------------------------------------|------------------------------------------------------|
A|----------------------------------------------------|------------------------------------------------------|
F|----------------------------------------------------|--------------------------------------------0-----0---|
C|----------------------------------------------------|------------------------------------------2-----4-----|
G|-7----------5--------------7---------5--------------|-2-2-2-2-5-4--2-2-2-2-5-4--2-2-2-2-5-4--3-----5-------|
D|-5--5-8-5-8---8-7-5-7-8-7--5--5-8-5-8---8-7-5-7-8-3-|-0-0-0-0-3-2--0-0-0-0-3-2--0-0-0-0-3-2----------------|

D|----------------------------------------------------|-------------------------------------------------|
A|----------------------------------------------------|-------------------------------------------------|
F|----------------------------------------------------|-------------------------------------------------|
C|----------------------------------------------------|-------------------------------------------------|
G|-7----------5--------------7---------5--------------|-2-2-2-2-5-4--2-2-2-2-5-4--2-2-2-2-5-4--2-2-2-2--|
D|-5--5-8-5-8---8-7-5-7-8-7--5--5-8-5-8---8-7-5-7-8-3-|-0-0-0-0-3-2--0-0-0-0-3-2--0-0-0-0-3-2--0-0-0-0--|

RIFF 3
D|---------------------------------|----------------------------------------------------------------|
A|---------------------------------|---------------------------------------------------------15-15b-|
F|-7-------------7-----------------|-------7/9-7-5-----7/9-7-5-----7/9-7-5--------------------------|
C|-7-7-----------7-----------------|--2-2-----------2-----------2-----------14-12-14-12-14-12-------|
G|-5-7-----------5-----------------|--2-2--5/7-5-3--2--5/7-5-3--2--5/7-5-3--------------------------|
D|---5---5-8-5-8---3-2-0-3-2-0-3-2-|--0-0-----------0-----------0-----------------------------------|

D|--------------------------------------------------------------------|
A|--------------------------------------------------------------------|
F|------7/9-7-5-----7/9-7-5-----7/9-7-5-------------------------------|
C|-2-2-----------2-----------2----------------------------------------|
G|-2-2--5/7-5-3--2--5/7-5-3--2--5/7-5-3-------------------------------|
D|-0-0-----------0-----------0-----------3-5-3-5-3-5-3-5-3-5--5-3-2---|

D|------------------------------------------------------|---------|
A|------------------------------------------------------|---------|
F|--------------------------------------------0-----0---|---14b---|
C|------------------------------------------2-----4-----|---14b---|
G|-2-2-2-2-5-4--2-2-2-2-5-4--2-2-2-2-5-4--3-----5-------|---------|
D|-0-0-0-0-3-2--0-0-0-0-3-2--0-0-0-0-3-2----------------|---------| 

RIFF 1            H.A                       H.A       H.A
D|----------------------------------------------------------------------|
A|--------------5-5-5-5---------------------5-------5-5-5-5-------------|
F|----------------------------------------------------------------------|
C|-2----------2---------2-------------2-------2-------------2-----------|
G|-2----------2---------2---5-4-5-7---2-------2-------------2---5-4-5-7-|
D|-0--0-0-3---0---------0---3-2-3-5---0-0-0---0-0-0---------0---3-2-3-5-| (2x)

RIFF 2
D|-----------------------------------------------------|----------------------------------------------------|
A|-----------------------------------------------------|----------------------------------------------------|
F|-----------------------------------------------------|----------------------------------------------------|
C|-----------------------------------------------------|----------------------------------------------------|
G|-7----------5--------------7---------5---------------|-2-2-2-2-5-4--2-2-2-2-5-4--2-2-2-2-5-4--2-2-2-4-5---|
D|-5--5-8-5-8---8-7-5-7-8-7--5--5-8-5-8---8-7-5--5-3-2-|-0-0-0-0-3-2--0-0-0-0-3-2--0-0-0-0-3-2--0-0-0-2-3---|

D|----------------------------------------------------|-------------------------------------------------|
A|----------------------------------------------------|-------------------------------------------------|
F|----------------------------------------------------|-------------------------------------------------|
C|----------------------------------------------------|-------------------------------------------------|
G|-7----------5--------------7---------5--------------|-2-2-2-2-5-4--2-2-2-2-5-4--2-2-2-2-5-4--2-2-2-2--|
D|-5--5-8-5-8---8-7-5-7-8-7--5--5-8-5-8---8-7-5-7-8-3-|-0-0-0-0-3-2--0-0-0-0-3-2--0-0-0-0-3-2--0-0-0-0--|

RIFF 3
D|---------------------------------|----------------------------------------------------------------|
A|---------------------------------|---------------------------------------------------------15-15b-|
F|-7-------------7-----------------|-------7/9-7-5-----7/9-7-5-----7/9-7-5--------------------------|
C|-7-7-----------7-----------------|--2-2-----------2-----------2-----------14-12-14-12-14-12-------|
G|-5-7-----------5-----------------|--2-2--5/7-5-3--2--5/7-5-3--2--5/7-5-3--------------------------|
D|---5---5-8-5-8---3-2-0-3-2-0-3-2-|--0-0-----------0-----------0-----------------------------------|

D|--------------------------------------------------------------------|
A|--------------------------------------------------------------------|
F|------7/9-7-5-----7/9-7-5-----7/9-7-5-------------------------------|
C|-2-2-----------2-----------2----------------------------------------|
G|-2-2--5/7-5-3--2--5/7-5-3--2--5/7-5-3-------------------------------|
D|-0-0-----------0-----------0-----------3-5-3-5-3-5-3-5-3-5--5-3-2---|

D|-----------------------------------------------------|
A|-----------------------------------------------------|
F|-----------------------------------------------------|
C|-----------------------------------------3-3-3-3-3-3-|
G|---------5-7--------5-7-----------5-7-5--3-3-3-3-3-3-|
D|-0-0-3-0-----0---3-0---3-2-0-0-3-0-------1-1-1-1-1-1-| (4X)

BASE DO SOLO
D|----------------------------------------------------------------------|
A|----------------------------------------------------------------------|
F|-11/12--11--9--11---11/12--11--9--11---11/12--11--9--11---------------|
C|----------------------------------------------------------------------|
G|--9/10---9--7---9----9/10---9--7---9----9/10---9--7---9--3-3-3-3-3-3--|
D|---------------------------------------------------------1-1-1-1-1-1--| (4X)

SOLO
D|--------------------------------------------------------------------------|
A|--------------------------------------------------------------------------|
F|-13~~-14-16-17---16-14-13----------------13-------------------------------|
C|--------------------------15-14-12-14-15---15-14-12-----------------------|
G|----------------------------------------------------15-14-12-11-----------|
D|----------------------------------------------------------------13-10-12--|

D|-----4-5-4-------------------------------------------------|
A|-5-6-------6-5-3-------------------------------------------|
F|-----------------5-4-2-1-2-4-5-4-2-1-----------------------|
C|-------------------------------------3-2-0-----------------|
G|-------------------------------------------3-2-0-----------|
D|-------------------------------------------------4-1-0---0-|

D|-----------------------------------------------------------------------------------------|
A|-18-17-15--------------------------------------------------------------------------------|
F|----------17-16-14-13----------------12-14-12--------------------------------------------|
C|----------------------15-14-12-14-15----------15-14-12-------------------3-2-0-----------|
G|-------------------------------------------------------15-14-12---------------3-2-0------|
D|----------------------------------------------------------------13-12-10------------4-1--|

D|-12b--12-10-12---18b-18b--18-16-18---21b--21-19-21---------------------------------------------------|
A|-----------------------------------------------------------------------------------------------------|
F|-----------------------------------------------------------------------------------------------------|
C|-------------------------------------------------------------0-2-3-2-0-------------------------------|
G|-------------------------------------------------------0-2-3-----------3-2-0-------------------------|
D|---------------------------------------------------0-4-----------------------3-1-0--3-2-0-3-2-0-2-3--|

D|----------------------------------------------------------------|
A|---------------------------------------------------------15-15b-|
F|-------7/9-7-5-----7/9-7-5-----7/9-7-5--------------------------|
C|--2-2-----------2-----------2-----------14-12-14-12-14-12-------|
G|--2-2--5/7-5-3--2--5/7-5-3--2--5/7-5-3--------------------------|
D|--0-0-----------0-----------0-----------------------------------|

D|--------------------------------------------------------------------|
A|--------------------------------------------------------------------|
F|------7/9-7-5-----7/9-7-5-----7/9-7-5-------------------------------|
C|-2-2-----------2-----------2----------------------------------------|
G|-2-2--5/7-5-3--2--5/7-5-3--2--5/7-5-3-------------------------------|
D|-0-0-----------0-----------0-----------3-5-3-5-3-5-3-5-3-5--5-3-2---|

D|------------------------------------------------------|      ------------------|
A|------------------------------------------------------|      ------------------|
F|--------------------------------------------0-----0---|      -----0-----0------|
C|------------------------------------------2-----4-----|      ----2-----4-------|
G|-2-2-2-2-5-4--2-2-2-2-5-4--2-2-2-2-5-4--3-----5-------|      --3-----5------2--|
D|-0-0-0-0-3-2--0-0-0-0-3-2--0-0-0-0-3-2----------------| (3X) ---------------0--|


___________________________________________________________________
Colaboração: Henrique Barboza Camero - bodao_loko@hotmail.com 
Correção: Daymifer Gomes Hemer - daymifer_@hotmail.com

><> Supergospel.com.br - O portal da música gospel

 RECURSOS    Corrigir música | Versão para impressão | Indicar a um amigo | Compre este CD
Copyright - 2001 - 2018 Supergospel. Todos os direitos reservados.