Twitter do SuperGospel Facebook do SuperGospel

Matérias em destaque



Vitória no deserto (Cifra)
Aline Barros


VITÓRIA NO DESERTO
G                D9             Em   C
 Quando a noite fria cair sobre mim
G         D9               Em   C
 E num deserto eu me encontrar
G                     D9              Em  C
 Me ver cercado por egípcios e por Faraó
G           D9            Em  C
 Sendo impedido de prosseguir (2x)

G              D9              Em  C
 Sei que o Teu fogo cairá sobre mim
G              D9              Em  C
 Sei que o Teu fogo cairá sobre mim
G         D9              Em  C
 E me levará em Ti confiar
G         D9              Em  C
 E me levará em Ti confiar

Refrão:
          G      D9            Em  C
Então eu direi, oh oh, abra-se o mar
          G                D9              Em   C
E eu passarei pulando e dançando em Sua presença (2x)
          G                       D9
Por isso eu pulo, pulo, pulo, pulo, pulo
               Em  C
Na presença do Rei
          G                           D9
Por isso eu danço, danço, danço, danço, danço
               Em  C
Na presença do Rei
          G                           D9
Por isso eu grito, grito, grito, grito, grito
               Em  C
Na presença do Rei
          G                           D9
Por isso eu corro, corro, corro, corro, corro
               Em  C
Na presença do rei

Riff:
       D9           Bm     Em        D9            Bm     Em     D9           Bm     Em        F9 D9
E|-----------------------------------------------------------------------------------------------|
B|-----------------------------------------------------------------------------------------------|
G|-----------------------------------------------------------------------------------------5-7-7-|
D|-----------------------------------------------------------------------------------------5-7-7-|
A|--3/5---------5-2-2-2-3/7-7-73-3/5---------5-2h3-2-0---0-2-3/5---------5-2-2-2-3/7-7-7-3-5-5-|
E|------0-3-5-7-----------------------0-3-5-7-----------3---------0-3-5-7------------------------|


  G      D9            Em        C
Então eu direi, oh oh, abra-se o mar
  G              D9              Em          C
E eu passarei pulando e dançando em Sua presença (2x)

C           G                    D9
Por isso eu pulo, pulo, pulo, pulo, pulo
               Em  C
Na presença do Rei
           G                     D9
Por isso eu danço, danço, danço, danço, danço
               Em  C
Na presença do Rei
           G                     D9
Por isso eu grito, grito, grito, grito, grito
               Em  C
Na presença do Rei
           G                     D9
Por isso eu corro, corro, corro, corro, corro
               Em  C
Na presença do rei

  G      D9            Em       C
Então eu direi, oh oh, abra-se o mar
  G              D9              Em          C
E eu passarei pulando e dançando em Sua presença (2x)
Riff:
                 D   G
                 Se__nhor...

E|----------------------|
B|----------------------|
G|----------------------|
D|--109-97-75-5--5-5-|
A|--x----x---x---x--5-5-|
E|--8 7-75-53-3--3-3-|

___________________________________________________________________
Colaboração:  -  

><> Supergospel.com.br - O portal da música gospel

 RECURSOS    Corrigir música | Versão para impressão | Indicar a um amigo | Compre este CD
Copyright - 2001 - 2018 Supergospel. Todos os direitos reservados.