Twitter do SuperGospel Facebook do SuperGospel

Matérias em destaque



Amigo (Cifra)
Onix 8


Amigo
Onix8

Tom: G
		

G5         G/F#        E5
Se você parar pra pensar

                       C5
Você vai ver que está vida

         D5
Não tem nada a oferecer

G5              G/F#               E5
Que é fácil fingir que está tudo bem
   
                 C5             D5       
Não precisa de amigos, não precisa de ninguém (G5  G/F#  E5  C5  D5  G5) (2x)


G5         G/F#        E5
Se você parar pra pensar

                       C5
Você vai ver que está vida

         D5
Não tem nada a oferecer

G5              G/F#               E5
Que é fácil fingir que está tudo bem 
  
                 C5             D5         C5
Não precisa de amigos, não precisa de nin guém


        D5        E5
Vai lembrar de você

          G5
Se continuar a se esconder

  C5        D5          E5
(Vai) Refletir no que fez

           G5
Até agora com você


 ( C5 E5 F#5 A5 B5  C5  D5 )
E|---------------------------|
B|---------------------------|
G|-5--9--11--14--16--17--19--|
D|-xxxxxxxxxxxxxxxxxxxxxxxx--|
A|-3--7--9---12--14--15--17--|
E|---------------------------|


C5  D5    (G5 F#5 E5) (G5 F#5 E5)
E ver que nada mudou (Nada mudou)

C5     D5     (G5 F#5 E5)    (G5 F#5 E5)
Conviver com o que restou (Com o que restou)

C5  D5    (G5 F#5 E5) (G5 F#5 E5)
E ver que nada mudou (Nada mudou)

C5     D5     (G5  F#5 E5)   (G5 F#5 E5)    C5 D5
Conviver com o que restou (Com o que restou)        

De você (G5   G/F#   E5   C5   D5   G5) (2x)


 (G5 G/F# E5 (3x) A5) (na 3ª: G5 G/F# E5 (3x) A5 B5)
E|-----------------------------|
B|-----------------------------|
G|-----------------------------|
D|-----------------------------| (2x)
A|-5-4-2--5-4-2--5-4-2--7-5-4--|
E|-3-2-0--3-2-0--3-2-0--5-3-2--|



E|-----------------------------|
B|-----------------------------|
G|-----------------------------|
D|-----------------------------|
A|-5-4-2--5-4-2--5-4-2--5-7-9--|
E|-3-2-0--3-2-0--3-2-0--3-5-7--|



C5  D5    (G5 F#5 E5) (G5 F#5 E5)
E ver que nada mudou (Nada mudou)

C5     D5     (G5 F#5 E5)    (G5 F#5 E5)
Conviver com o que restou (Com o que restou)

C5  D5    (G5 F#5 E5) (G5 F#5 E5)
E ver que nada mudou (Nada mudou)

C5     D5     (G5  F#5 E5)   (G5 F#5 E5)    C5 D5
Conviver com o que restou (Com o que restou)        

De você (G5   G/F#   E5   C5   D5   G5) (2x)

___________________________________________________________________
Colaboração:  -  

><> Supergospel.com.br - O portal da música gospel

 RECURSOS    Corrigir música | Versão para impressão | Indicar a um amigo
Copyright - 2001 - 2018 Supergospel. Todos os direitos reservados.