Twitter do SuperGospel Facebook do SuperGospel

Matérias em destaque



Se clamares (Cifra)
Aline Barros


SOLO INTRODUÇÃO: 

E|-------------------------------------------|
B|-------------------------------------------    |
G|-2-2---5-4h5-5 -5---5-4h5-7--7--5-4h5---------------------|
D|-2-2---------3- 3---------5--5-------------               |
A|------------------------------------------2- 2    5 5         |
E|------------------------------------------0--0-2--3 3          |

E|------------------------------------------------------------|
B|-----------------------------8------8------8--------8-----------|
G|-2-2---5-4h5-5-5---5-4h5-------7-----         7        7        |
D|-2-2-------  3-3-----------------5------5------  5        5      | Depois disso
A|------------------------------------------------------------|começa tudo de novo  
E|------------------------------------------------------------|

SOLO da guitarra:

E|-15b-15r-15b~--20b----------------------------------|
B|-------------------------------------15b-15r-13-----|
G|-----------------------------------------------14---|
D|-------------------------------15-------------------|
A|-----------------------------15--15~----------------|
E|----------------------------------------------------|

E|-15b-15r-12-15b~---17b-17b~--20b-20b-20r-17-17-17~-|
B|---------------------------------------------------|
G|---------------------------------------------------|
D|---------------------------------------------------|
A|---------------------------------------------------|
E|---------------------------------------------------|
                    T        T        T
E|-20b-20r-17-17~---22-20p17-22-20p17-24-20p17----------|
B|--------------------------------------------20-17-20b-|
G|------------------------------------------------------|
D|------------------------------------------------------|
A|------------------------------------------------------|
E|------------------------------------------------------|


E|------------------------------------------------15b-15r-15~~-|
B|-15b-15r-13-15b-15r-13-15b-15r-13-15b-15r-13-----------------|
G|--------------------------------------------14~--------------|
D|-------------------------------------------------------------|
A|-------------------------------------------------------------|
E|-------------------------------------------------------------|

E|-------------12---------------------------12-12/17-15-12---|
B|--------13-15--15-13-----------------13-15--------------15-|
G|---12-14------------14-12-------12-14----------------------|
D|-14----------------------14~--14---------------------------|
A|-----------------------------------------------------------|
E|-----------------------------------------------------------|

E|-15-12-10----------------------------12-13-15-13-12--------------|
B|---------13-12-10---10-------12-13-15--------------15-13-12------|
G|-----------------12-----12-14------------------------------14-12-|
D|-----------------------------------------------------------------|
A|-----------------------------------------------------------------|
E|-----------------------------------------------------------------|

E|--------------12h13h15~--15b-15b-15b-15r-12-15b-15b~-||
B|------12h13h15---------------------------------------||
G|-12h14-----------------------------------------------||
D|-----------------------------------------------------||
A|-----------------------------------------------------||
E|-----------------------------------------------------||

___________________________________________________________________
Colaboração: Johnny Sérgio Prado Azevedo - johnnyazevedo@terra.com.br 
Correção: Eduardo Elias dos Anjos de Brito - edumusic_tlab@ig.com.br
Correção: lazaro rabelo de almeida neto - netao_12@hotmail.com
Correção: Mauricio j. Frigo - frigo.r@terra.com.br
Correção: CAIO BERNARDI BERTAZZO - eubertazzo@gmail.com

><> Supergospel.com.br - O portal da música gospel

 RECURSOS    Corrigir música | Versão para impressão | Indicar a um amigo | Compre este CD
Copyright - 2001 - 2018 Supergospel. Todos os direitos reservados.