Twitter do SuperGospel Facebook do SuperGospel

Matérias em destaque



Invasão (Cifra)
Katsbarnea


Intro:

  B5  D5  A5  E5 
e-----------------
B-----------------
G-----------------
D--4---7---7---9--
A--2---5---7---7--
E----------5------

B5           D5          
Invadir o impenetrável
   A5     E5
Caminhos apenas sonhados
   B5                      D5
Deixar de viver como um medíocre humano
      A5              E5
Quem sabe um coitado, um miserável
  B5                   D5
Além das loucuras, do brilho do mundo
A5                 E5
Ácidas estrelas e constelações 
   B5                  D5
Levante a cabeça, não seja um rato ou cão
     A5                D5
Vem conhecer de vez o Filho de Deus


RIFF2

E--------------------------------------------------
B--------------------------------------------------    
G-5-5-5-3-5-5-5-8-8-5-5-5--5-5-5--5-4-3-2----------
D-----------------------------------------6-5-3---- Até voltar à intro
A-3-3-3-1-3-3-3-6-6-3-3-3--3-3-3----------------6-3
E--------------------------------------------------


RIFF2
Porque Deus amou, somente Deus amou
Ao mundo deu seu Filho, Cristo Jesus 
Pra que todo o ser que n'Ele crê não se perca 
Mas tenha a vida eterna

___________________________________________________________________
Colaboração: Caio Bruno - bateracaio@bol.com.br 
Correção: Güido Pulice Boni - gubonni@aol.com
Correção: William Alencar - williamalencar@uol.com.br

><> Supergospel.com.br - O portal da música gospel

 RECURSOS    Corrigir música | Versão para impressão | Indicar a um amigo
Copyright - 2001 - 2018 Supergospel. Todos os direitos reservados.