Twitter do SuperGospel Facebook do SuperGospel

Matérias em destaque



Indiferença (Cifra)
Oficina G3


Tom : E7/9   ,F7/9   ,E7/9   ,Eb7/9   , 
(O RITMO DA MÚSICA TODO É ESSE, NO CD ACÚSTICO)
Intro 6 ou 7x
Riff 1 
E--------------------------------------------------------
B-----------------7->8------------------------------------
G-----7/9---7/9------------7/9-----------------------------
D-----------------5---------------------------------------
A-----5/7---5/7------------5/7----->7-5---------------------
E--------------------------------------7-5-3---------------

o que tiver -> deslise o dedo até a próxima nota

E7/9  ,F7/9  ,E7/9  ,Eb7/9          E7/9  ,F7/9  ,E7/9  ,Eb7/9   
Um farol, e esquinas da cidade, a infância na marginalidade.
E7/9  ,F7/9  ,E7/9  ,Eb7/9        E7/9  ,F7/9  ,E7/9  ,Eb7/9   
Sem família nas ruas a viver. Mãos estendidas esperando receber
C7/9          B7/9                       Riff 2
    Vidros fechados, gestos nulos do outro lado.
C7/9          B7/9                      abafa a nota B7/9
    Vidros fechados, gestos mudos do outro lado.

Riff 2
        C#m   D9
E--------------------------------------------------------
B-------5-----5------------------------------------------
G-------6-----7------------------------------------------
D-------6-----7------------------------------------------
A-------4-----5--------5--4--2---------------------------
E-------------------------------3~-----------------------


E7/9  ,    F7/9  ,     E7/9  ,    Eb7/9   
Troca de olhares indiferença rejeição, 
E7/9  ,  F7/9  , E7/9  ,    Eb7/9   
Mais um número nesse Mundo cão

C7/9          B7/9                       Riff 2
    Vidros fechados, gestos nulos do outro lado.
C7/9          B7/9                      abafa a nota B7/9
    Vidros fechados, gestos mudos do outro lado.

E7/9 ,        F7/9 , E7/9 ,    Eb7/9 ,  E7/9 ,  F7/9 , 
Os vícios e o crack, constantes ilusões de vidas, de colhidas 
E7/9 ,        F7/9 ,  E7/9 ,       F7/9 ,   E7/9 ,          Eb7/9 
Em meio as multidões. A lei do mais forte, é o que rola pra viver
E7/9 ,          F7/9 ,        E7/9 ,    Eb7/9 
Brincando com a morte sem Ter nada a perder

C7/9          B7/9                       Riff 2
    Vidros fechados, gestos nulos do outro lado.
C7/9          B7/9                      abafa a nota B7/9
    Vidros fechados, gestos mudos do outro lado.

(Aqui vai de presente para voces.Depois mande e-mail agradecendo:)
(JAZZ)
E--------------------------------------------------------------------
B--------------------------------------------------------------------
G--------------------------------------------------------------------
D-------------------3-4-5-3------------------------------------------
A-----5-6-7-5---3-6--------------------------------------------------
E-5-8----------------------------------------------------------------
(Aqui vai as notas da base...de quebra para vocês)
A5,C5,D5,E5b,E5 C5,Eb5,F5, F#5,G5
(TUDO COM BI-CORDE, OU SEJA SÓ BATE NO BAIXO) 

(JAZZ)
Abra o vidro do seu coração, o amor gera atitude
Comece a agir, chega de falar, só com palavras não se pode mudar

Am7                           Cm7
Abra o vidro do seu coração o amor gera atitudes,
  Am7                           
Comece a agir, chega de falar
    Cm7
Só com palavras não se pode mudar


Dica:use essas notas para ficar identica a música do CD Acustico
  E7/9    F7/9   Eb7/9    C7/9    B7/9     A5       C5        F5
7||1||| 7|||||| 6||1|||  ||||||  ||1||| 5 1||||| 3 |1|||| 8 |1||||
 |2|3||  ||1|||  |2|3||  ||1|||  |2|34|   ||||||   ||||||   ||||||
 ||||4|  |2|3||  ||||4|  |2|34|  ||||||   |23|||   ||23||   ||23||
 ||||||  ||||4|  ||||||  ||||||  ||||||   ||||||   ||||||   ||||||

Lembrando que é a versão Acústica..
Pessoal é isso ai a música, bem acho o legal é colocar a música
(acustico)e acompanhar depois vc vai dar risadas de achar facil,
qualquer coisa mande um e-mail
Leandro♪J::: Leandro_jesus@hotmail.com

___________________________________________________________________
Colaboração: Enoch Mello - Enochmm@eletrobras.gov.br 
Correção: Leandro de Jesus Jardim - leandro_jesus@hotmail.com

><> Supergospel.com.br - O portal da música gospel

Também para esta música: Tablatura de guitarra

 RECURSOS    Corrigir música | Versão para impressão | Indicar a um amigo
Copyright - 2001 - 2018 Supergospel. Todos os direitos reservados.