Twitter do SuperGospel Facebook do SuperGospel

Matérias em destaque



Profetiza (Tablatura de guitarra / violão)
Filhos do Homem


Solo:
(2:00)
                                               
E|----------------------------------------------------------------------|
B|------------10---10b~-10r-8-7-8-5-7-3-5-0-3---------------------------|
G|-----12-9-12--12----------------------------0-2---0---2-4-0-2~~-------|
D|-9-10-------------------------------------------2---2-----------------|
A|----------------------------------------------------------------------|
E|----------------------------------------------------------------------|
      
E|-------------------------------------------------------------------------|
B|-------8---8-7b8r-5h7------10b~~-----15b-15r-15p12-15b-15r-15p12-15b-15r-|
G|---------9------------5-4------------------------------------------------|
D|-7-9-10------------------------------------------------------------------|
A|-------------------------------------------------------------------------|
E|-------------------------------------------------------------------------|

E|-------15-------------------------------------------------------------------------|
B|-15p12----15-12-15--15b~~--17b-17r-15-12---12~~-14b15-12~~----8-10-11-10-8--------|
G|----------------------------------------14------------------8-------------10-8-10-|
D|----------------------------------------------------------------------------------|
A|----------------------------------------------------------------------------------|
E|----------------------------------------------------------------------------------|
                           Os mortos levantaram...... 
E|----------------------------------------||
B|-10-11-13-11-10-------13b~~~~-----------||
G|---------------12-10--------------------||
D|----------------------------------------||
A|----------------------------------------||
E|----------------------------------------||

___________________________________________________________________
Colaboração: Mauricio J.Frigo - frigo.r@terra.com.br 

><> Supergospel.com.br - O portal da música gospel

Também para esta música: Cifra

 RECURSOS    Corrigir música | Versão para impressão | Indicar a um amigo | Compre este CD
Copyright - 2001 - 2018 Supergospel. Todos os direitos reservados.