Twitter do SuperGospel Facebook do SuperGospel

Matérias em destaque



Quatro seres (Tablatura de guitarra / violão)
Filhos do Homem


Solo da introducao


E|----------------------------------------------------------------------------------------|
A|---7--7--7--7------10-9-10-10---3-3-3----7----------------------------------------------|
D|----9--7--9--10-9-7--------------5-4-5----5-------------------------5-4----------------7|  2X
G|-------------------------------------------5-7/9-7-7-7--9P5H7-7-7---7-7-------7P5P4-5-7-|
B|-------------------------------------------------------------------------8P7P5----------|
e|----------------------------------------------------------------------------------------|

E|----------------------------------------------------------------------------------------|
A|---7--7--7--7------10-9-10-10---3-3-3----7--------------------------------------------7-|
D|----9--7--9--10-9-7--------------5-4-5----5-------------------------5-4-----------9-10--|
G|-------------------------------------------5-7/9-7-7-7--9P5H7-7-7---7-7--------7-9------|
B|------------------------------------------------------------------------8-7-8-7---------|
e|----------------------------------------------------------------------------------------|



___________________________________________________________________
Colaboração: Anderson Toscan - andersonadestra@yahoo.com.br 

><> Supergospel.com.br - O portal da música gospel

Também para esta música: Cifra

 RECURSOS    Corrigir música | Versão para impressão | Indicar a um amigo | Compre este CD
Copyright - 2001 - 2018 Supergospel. Todos os direitos reservados.