Twitter do SuperGospel Facebook do SuperGospel

Matérias em destaque



Reina (Tablatura de guitarra / violão)
Filhos do Homem


/\ = Aumentar de Tom

----------------------------------------------------------------------------------------------------------------------
--17/\(1)-16-17-16-14------------------------------------------------------------15----19-15--------------------------
----------------------16-14-13-----------------------------------12--------12-16----16--------------------------------
-------------------------------16-14-13-11--------------------12--------12--------------------------------------------
-------------------------------------------14-12-11-9-\-10-14--------14-----------------------------------------------
----------------------------------------------------------------------------------------------------------------------

-17-------------------------------------------------------------------------------------------------------------------
----19-------------------------------------------------------11-/\(1/2)-11-11-9--------13-/\(1/2)---------------------
-------21-19-18--19-18-16-------------------------------------------------------11^^^^--------------------------------
--------------------------19-17-16------------------------------------------------------------------------------------
-----------------------------------17-16-14---------------------------------------------------------------------------
--------------------------------------------17-15-14-12---------------------------------------------------------------

---------------------------------------------------15/\(1)15---------17-----------------------------------------------
------------------------------------------12-14--------------17\/(1)----17-17-----------------------------------------
---------------------------------11-13-14-----------------------------------------------------------------------------
----------9-11-12-14-12-11-12-14--------------------------------------------------------------------------------------
--9-11-12-------------------------------------------------------------------------------------------------------------
----------------------------------------------------------------------------------------------------------------------

----------13-14-17-14-13----------------------13-14-17-14-13----------------------------------------------------------
-12-15-17----------------17-15-12----12-15-17----------------17-15-12-15-15/\(1)/\(1)-12-15--14-15-14-12--------------
----------------------------------14---------------------------------------------------------------------14/\(1)-14---
----------------------------------------------------------------------------------------------------------------------
----------------------------------------------------------------------------------------------------------------------
----------------------------------------------------------------------------------------------------------------------

----------------------------------------------------------------------------------------------------------------------
-12-15-14/\(1/2)--14^^^^---15-14-12--19/\(1)--------------------------------------------------------------------------
----------------------------------------------------------------------------------------------------------------------
----------------------------------------------------------------------------------------------------------------------
----------------------------------------------------------------------------------------------------------------------
----------------------------------------------------------------------------------------------------------------------

___________________________________________________________________
Colaboração: Geovane Belusso - geovanebelusso@hotmail.com 

><> Supergospel.com.br - O portal da música gospel

Também para esta música: Cifra

 RECURSOS    Corrigir música | Versão para impressão | Indicar a um amigo | Compre este CD
Copyright - 2001 - 2018 Supergospel. Todos os direitos reservados.