Twitter do SuperGospel Facebook do SuperGospel

Matérias em destaque



Uma Razão Uma Nação (Tablatura de guitarra / violão)
Filhos do Homem


Solo da introdução


E|------------------------------|
A|------------------------------|
D|------------------------------| 3X
G|-5---5---5------5---5---5-----|
B|---5---5---5------6---6---6---|
E|------------------------------|

E|---------------------------------|
A|---------------------------------|
D|---------------------------------|
G|-5---5---5------5---5---5-----5--|
B|---5---5---5------3---3---3---5--|
E|---------------------------------|

___________________________________________________________________
Colaboração: Samuel Osterkamp - samuel_osterkamp@yahoo.com.br 

><> Supergospel.com.br - O portal da música gospel

 RECURSOS    Corrigir música | Versão para impressão | Indicar a um amigo | Compre este CD
Copyright - 2001 - 2018 Supergospel. Todos os direitos reservados.