Twitter do SuperGospel Facebook do SuperGospel

Matérias em destaque



Mãos limpas (Tablatura de guitarra / violão)
Filhos do Homem


Pra tomado por Ti permanecer

Tomado permanecer...

E |------------------------------------------------------------------------------------------------------
B |---------- 10-----12^12----10---------10--12^-12--15^-10---------10--12^-12---------------------------
G |----6-7-9--------------12------6-7-9----------------------6-7-9-------------12^-----------------------
D |------------------------------------------------------------------------------------------------------
A |------------------------------------------------------------------------------------------------------
E |------------------------------------------------------------------------------------------------------

E |------------------------------------------------------------------------------------------------------
B |------------------------10--08--5-7-8-10-12-13-14-15/-17~~--------------------------------------------
G |-7^7/5---5------6-7-9---------------------------------------------------------------------------------
D |-------7---7~~----------------------------------------------------------------------------------------
A |------------------------------------------------------------------------------------------------------
E |------------------------------------------------------------------------------------------------------  

Mãos Limpas, Coração Puro...

obs: a partir do compasso 13 repita 4 veses cada nota.

___________________________________________________________________
Colaboração: Guilherme Augusto - guilherme_asp@hotmail.com 
    Correção: Leandro Rodrigo Sniker - lsniker@transitions.com.br
Correção: Claudecir Mariano - claudecirmariano26@hotmail.com

><> Supergospel.com.br - O portal da música gospel

Também para esta música: Cifra

 RECURSOS    Corrigir música | Versão para impressão | Indicar a um amigo | Compre este CD
Copyright - 2001 - 2018 Supergospel. Todos os direitos reservados.