Twitter do SuperGospel Facebook do SuperGospel

Matérias em destaque



Senhor leva-me (Tablatura de guitarra / violão)
Filhos do Homem


E||--------------------------|------------------------|------------------------|
B||--------------------------|------------------------|------------------------|
G||--12----14----16----12----|------14----16----12----|------14----16----12----|
D||--------------------------|------------------------|------------------------|
A||--------------------------|------------------------|------------------------|
E||--------------------------|------------------------|------------------------|

------------------------|------------------------|--------------------------|
------------------------|------------------17----|--------------------------|
------14----16----12----|------14----16----------|--14----16----12----14----|
------------------------|------------------------|--------------------------|
------------------------|------------------------|--------------------------|
------------------------|------------------------|--------------------------|

--------------------------|--------------||
--17----15----------------|--------------||
--------------14----16----|--12----11----||
--------------------------|--------------||
--------------------------|--------------||
--------------------------|--------------||


essa é a guitarra 2º, tem a primeira do Dueto 
esta  é a terça menor 

___________________________________________________________________
Colaboração: Maikon A. Nora - maikonora@ibest.com.br 

><> Supergospel.com.br - O portal da música gospel

Também para esta música: Cifra

 RECURSOS    Corrigir música | Versão para impressão | Indicar a um amigo | Compre este CD
Copyright - 2001 - 2018 Supergospel. Todos os direitos reservados.