Twitter do SuperGospel Facebook do SuperGospel

Matérias em destaque



Quando estou aqui (Tablatura de guitarra / violão)
Filhos do Homem


e|-------------------------------------------------------------------------------------|
B|-------------------------------------------------------------------------------------|
G|--------------4---5---7---------9---7--------5---5---5---4---4-----------------------|
D|----5---7------------------5-----------------------------------------7---5-----------|
A|--------------------------------------------------------------------------------7----|
E|-------------------------------------------------------------------------------------|
 
 e|---------------------------------------------------------------13br---------------|
 B|----------------12---13---15----------15br---13---12------------------------------|
 G|---12---14----------------------12------------------------------------------------|
 D|----------------------------------------------------------------------------------|
 A|----------------------------------------------------------------------------------|
 E|----------------------------------------------------------------------------------|

e|-------------------------------------------------------------------------------------|
B|-------------------------------------------------------------------------------------|
G|--------------4---5---7---------9---7----5--5--5---4--4--4---------------------------|
D|----5---7------------------5-------------------------------------7--7--7---5--5--5---|
A|-------------------------------------------------------------------------------------|
E|-------------------------------------------------------------------------------------|

e|--------------------------------------------------------------------------------------|
B|-----13--13—13---12-12--12------------------------------------------------------------|
G|-------------------------------------14--14--14---12--12--12--------------------------|
D|--------------------------------------------------------------------------------------|
A|--------------------------------------------------------------------------------------|
E|--------------------------------------------------------------------------------------|

___________________________________________________________________
Colaboração: Gledson Stols Teixeira - gregman@bol.com.br 
    Correção: Gledson Stols Teixeira - gregman@bol.com.br

><> Supergospel.com.br - O portal da música gospel

Também para esta música: Cifra

 RECURSOS    Corrigir música | Versão para impressão | Indicar a um amigo | Compre este CD
Copyright - 2001 - 2018 Supergospel. Todos os direitos reservados.