Twitter do SuperGospel Facebook do SuperGospel

Matérias em destaque



Somos teus filhos (Tablatura de guitarra / violão)
Filhos do Homem


E||-----------0----------0--|----------0------------|-----------3----------3--|
B||--------3-------3--------|----3----------3-------|--------3-------3--------|
G||-----2-------------2-----|-------2----------2----|-----4-------------4-----|
D||--0----------------------|-----------------------|--0----------------------|
A||-------------------------|-----------------------|-------------------------|
E||-------------------------|-----------------------|-------------------------|


                                                                            
----------3------------||------------5----------5--|----------5------------|
----3----------3-------||---------3-------3--------|----3----------3-------|
-------4----------4----||*-----2-------------2-----|-------2----------2----|
-----------------------||*--0----------------------|-----------------------|
-----------------------||--------------------------|-----------------------|
-----------------------||--------------------------|-----------------------|


                                                    
-----------3----------3--|----------3-------------||
--------3-------3--------|----3----------3--------||
-----2-------------2-----|-------2----------2----*||
--0----------------------|-----------------------*||
-------------------------|------------------------||
-------------------------|------------------------||

___________________________________________________________________
Colaboração: Maikon A. Nora - maikonora@ibest.com.br 
    Correção: Lucas - lucasnicchio@uol.com.br

><> Supergospel.com.br - O portal da música gospel

Também para esta música: Cifra

 RECURSOS    Corrigir música | Versão para impressão | Indicar a um amigo | Compre este CD
Copyright - 2001 - 2018 Supergospel. Todos os direitos reservados.