Twitter do SuperGospel Facebook do SuperGospel

Matérias em destaque



Te queremos mais (Tablatura de guitarra / violão)
Filhos do Homem


OBS: Este é o solo do meio da música

E------------------------------------------------|
A------------------------------------------------|
D------------------------------------------------|
G------------------------------------------------|
B-5-5-5-5--7--5---------5-5-5--7--5--------------|
e ----------------4--4---------------------------|

E------------------------------------------------|
A------------------------------------------------|
D------------------------------------------------|
G------------------------------------------------|
B--7--7--7--5--7--5---------------5/7------------|
e --------------------4--5--7--4-------7---------|

E------------------------------------------------|
A------------------------------------------------|
D------------------------------------------------|
G------------------------------------------------|
B-5-5-5--7--5---------5-5-5-5-7--5---------------|
e --------------4--4-----------------------------|

E------------------------------------------------|
A------------------------------------------------|
D------------------------------------------------|
G-------9-----9--9----------------9--------------|
B-8--7----7---------7/8--8--8--------------------|
e -----------------------------------------------|




E------------------------------------------------|
A------------------------------------------------|
D------------------------------------------------|
G--9--9------------------------------------------|
B---------7/8-----8--7---------------------------|
e-------------------9----12----------------------|

E------------------------------------------------|
A------------------------------------------------|
D------------------------------------------------|
G--9--9-----------------9------------------------|
B----------7/8---8--8----------------------------|
e ---------------------7/9--9-9---7-7-----11--12-|

___________________________________________________________________
Colaboração: Rayfran Matos  - rayfranmatos_souza@bol.com.br 

><> Supergospel.com.br - O portal da música gospel

Também para esta música: Cifra

 RECURSOS    Corrigir música | Versão para impressão | Indicar a um amigo | Compre este CD
Copyright - 2001 - 2018 Supergospel. Todos os direitos reservados.