Twitter do SuperGospel Facebook do SuperGospel

Matérias em destaque



Sepulcro caiado (Tablatura de guitarra / violão)
Katsbarnea


E  ------------------------------------------------
B  ------------------------------------------------
G  ------------------------------------------------
D  ------------------------------------------------
A  -----2--4--2----------------2--4--2-----3-------
E  --5-----------5--1-------5-----------5----------


E  ------------------------------------------------
B  ------------------------------------------------
G  ------------------------------------------------
D  ------------------------------------------------
A  -----2--4--2-----8-----------2--4--2----3-------
E  --5-----------5----------5-----------5----------

___________________________________________________________________
Colaboração: Danilo Scharan Augusto - danilo@sudamar.com.br 

><> Supergospel.com.br - O portal da música gospel

Também para esta música: Cifra

 RECURSOS    Corrigir música | Versão para impressão | Indicar a um amigo
Copyright - 2001 - 2018 Supergospel. Todos os direitos reservados.