Twitter do SuperGospel Facebook do SuperGospel

Matérias em destaque



Apocalipse (Tablatura de guitarra / violão)
Metal Nobre


Introd. Afinação:1/2 Tom Abaixo (Eb)

eb|---------------------------|------------------------------|----------------------------|
Bb|--3-----3-----6---5-----6--|---3-----3---6---5----6-5p6p5-|----3-----3-----6---5-----6-|
Gb|--2-----3-----7---5-----7--|---2-----3---7---5------------|----2-----3-----7---5-----7-|
Db|----0-0---0-0---0---0-0----|-0---0-0---0---0----0---------|0-0---0-0---0-0---0---0-0---|
Ab|---------------------------|------------------------------|----------------------------|
Eb|---------------------------|------------------------------|----------------------------|

    C#   A    B
eb|----------------|---------------------|
Bb|----------------|---------------------|
Gb|----------------|---------------------|
Db|--7-7--3-3--5-5-|------3---3-5-p3-----|
Ab|-/5-5--1-1--3-3-|--3-5---5--------5-3-|
Eb|----------------|---------------------|

eb|---------------------------|------------------------------|----------------------------|
Bb|--3-----3-----6---5-----6--|---3-----3---6---5----6-5p6p5-|----3-----3-----6---5-----6-|
Gb|--2-----3-----7---5-----7--|---2-----3---7---5------------|----2-----3-----7---5-----7-|
Db|----0-0---0-0---0---0-0----|-0---0-0---0---0----0---------|0-0---0-0---0-0---0---0-0---|
Ab|---------------------------|------------------------------|----------------------------|
Eb|---------------------------|------------------------------|----------------------------|

    C#   A    B
eb|----------------|----------|
Bb|----------------|----------|
Gb|----------------|----------|
Db|--7-7--3-3--5-5-|----------|
Ab|-/5-5--1-1--3-3-|----------|
Eb|----------------|----------| Inicio da letra...

Riff 2
A|-----9-|---9-11-|----9----|---------|
E|-9-11--|-11-----|-11---11-|-11-9-11-|

Repete o Riff 1.

O Riff 2 está na escala Pentatônica de C#. Vc pode usar no Início do braço tb.

___________________________________________________________________
Colaboração: sleeping_awake - carlosreis12@hotmail.com 
    Correção: Marcio Guerino Nesi - mgnesi@bol.com.br

><> Supergospel.com.br - O portal da música gospel

Também para esta música: Cifra

 RECURSOS    Corrigir música | Versão para impressão | Indicar a um amigo
Copyright - 2001 - 2018 Supergospel. Todos os direitos reservados.