Twitter do SuperGospel Facebook do SuperGospel

Matérias em destaque



Só há um Deus (Tablatura de guitarra / violão)
Metal Nobre


Introdução da música


E------------------3---------------2--------------0-----------------------------------------------------------------|
B-----------------------3--------------3---------------3---------3--------------------1-------------0---------------|
G----------------------------0--------------0---------------0------------------------------0-------------0----------|
D---------------------------------------------------------------------------------2-------------2-------------2-----|
A-----------2----------------------------------------------------------0--2--3--------------------------------------|   
E------3------------------------------------------------------------------------------------------------------------| 


E-----------------------------0-----------------------------------3----------------2-------------0------------------|
B-----------------------1-----------1-----------------------------------3---------------3------------3-------3------|
G----------------2-------------------------2----------------------------------0--------------0-----------0----------|
D----------2-------------------------------------2------------------------------------------------------------------|
A-----0------------------------------------------------------2------------------------------------------------------|
E-------------------------------------------------------3-----------------------------------------------------------|


E-----------------------------------------------------------------------------------3-------------------------------|
B---------------------------------1---------------------0---------------------------3-------------------------------|
G---------------------------------------0----------------------0--------------------0-------------------------------|
D---------------------2------------------------2----------------------2-------------2-------------------------------|
A------0---2---3----------------------------------------------------------------------------------------------------|
E-------------------------------------------------------------------------------------------------------------------|

Obs.: essa afinção da música é tocada meio tom abaixo.

___________________________________________________________________
Colaboração: Adriano Juczok - adrianoonil@ibest.com.br 
    Correção: adriano juczok - adrianoonil@ibest.com.br

><> Supergospel.com.br - O portal da música gospel

Também para esta música: Cifra

 RECURSOS    Corrigir música | Versão para impressão | Indicar a um amigo
Copyright - 2001 - 2018 Supergospel. Todos os direitos reservados.