Twitter do SuperGospel Facebook do SuperGospel

Matérias em destaque



Vou Confiar (Tablatura de guitarra / violão)
Metal Nobre


Solo Intro:

e|-------------------------------------------------------------|
B|-------------------5----------------------------------------|
G|--/4-6-4/6---4-2-4----4/6--4-6-7---6/7-6---------------------|
D|-------------------------------------------7---9------7-6----|
A|---------------------------------------------9------7-----7--|

e|-------------------------12-------------------9-10-9-10-9-10-9|
B|-/12-14--12/14--12-10-12----12/14-----9-10-12-----------------|
G|---------------------------------9-11-------------------------|


e|---------------------------------|
B|---10----12--10-9-10/12-10-9-10-10|
G|------9----9---------------------|

___________________________________________________________________
Colaboração: João Paulo Peserico Flores - cej_farofa@hotmail.com 
    Correção: matheus estevam de mattos - matheusestevamm@bol.com.br

><> Supergospel.com.br - O portal da música gospel

Também para esta música: Cifra

 RECURSOS    Corrigir música | Versão para impressão | Indicar a um amigo
Copyright - 2001 - 2018 Supergospel. Todos os direitos reservados.