Twitter do SuperGospel Facebook do SuperGospel

Matérias em destaque



Lágrimas (Tablatura de guitarra / violão)
Metal Nobre


e--------------------------------------
B--------------------------------------
G------11b----11b-11-9-11-7h8----------
D-------------------------------9------
A--7-----------------------------------
E--------------------------------------


e------------------------------
B------------------------------
G------------------------------
D--9---11---9------------------
A--------------12--11---12-----
E------------------------------

e------------------------------------------------
B--------10--------------------------------------
G--9/11------11----13b---13----11h9---11b--------
D------------------------------------------------
A------------------------------------------------
E------------------------------------------------

e-12----------------------------------
B-----11b--11h9-----9h11h9------------
G----------------11---------9---------
D-----------------------------11------
A--------------------------------9----
E-------------------------------------

e---------------------------------------
B---------------------12b--12b--12------
G-9--11b--11b--11---9---------------11--
D---------------------------------------
A---------------------------------------
E---------------------------------------

e---------------------------------------------------14---------
B------10------12b----------------------14h12--14b-------14b---
G-9/11-----11----------------------14b-------------------------
D-------------------9h11-9-------------------------------------
A--------------------------11----------------------------------
E------------------------------9-------------------------------

e---9----9-----10---10-----
B---12b--12b---14b--14b----
G--------------------------
D--------------------------
A--------------------------
E--------------------------

___________________________________________________________________
Colaboração: Cristiano roberto bueno - bueno.pg@bol.com.br 

><> Supergospel.com.br - O portal da música gospel

Também para esta música: Cifra

 RECURSOS    Corrigir música | Versão para impressão | Indicar a um amigo
Copyright - 2001 - 2018 Supergospel. Todos os direitos reservados.