Twitter do SuperGospel Facebook do SuperGospel

Matérias em destaque



Invasão (Tablatura de guitarra / violão)
Katsbarnea


SOLO 1  2X

e -----------------------------------------------------------------
A --2-2-2-0-2-2-2-0-2-2-2-5-5--2-2-2-0-2-2-2-2---------------5-4---
D------------------------------------------------------4-3-2-------
G ----------------------------------------------4-3-2--------------
B -----------------------------------------------------------------
E -----------------------------------------------------------------

E -----------------------------------------------------------------
A --2-2-2-0-2-2-2-0-2-2-2-5-5--2-2-2-0-2-2-2-2-----2-2--3-3--------
D -------------------------------------------------4-4--5-5--------
G -----------------------------------------------------------------
B -----------------------------------------------------------------
e -----------------------------------------------------------------

___________________________________________________________________
Colaboração: Evandro Marcel Zani - brotherzani@ig.com.br 

><> Supergospel.com.br - O portal da música gospel

Também para esta música: Cifra

 RECURSOS    Corrigir música | Versão para impressão | Indicar a um amigo
Copyright - 2001 - 2018 Supergospel. Todos os direitos reservados.