Twitter do SuperGospel Facebook do SuperGospel

Matérias em destaque



Amor e Vida (Tablatura de guitarra / violão)
Metal Nobre


Introd. B F Cm Gm E B F

---------------------------------------------------------------------E
---------------------------------------------------------------------B
---------------------------------------------------------------------G
------9----9--11-13-11~~ 11-13/14-13-11h13-9~~ -------13-------------D
-9-11---11--------------------------------------11-14---14~~ --------A
---------------------------------------------------------------------E

---------------------------------------------------------------------E
---------------------------------------------------------------------B
---------------------------------------------------------------------G
13-13-11h13--11~~~~ -------------------------------------------------D
---------------------------------------------------------------------A
---------------------------------------------------------------------E

SOLO: 

e-------------------------------------------------------------10--------------
B---------------------------------------------------8---8-10b----10b-8--8-10b-
G---7b--7-5-7b-7~~~~---9b--9-7--------------------9---9---------------9-------
D------------------------------10---------10-9-10-----------------------------
A---------------------------------8-10-12-------------------------------------
E-----------------------------------------------------------------------------



___________________________________________________________________
Colaboração: Felipe Amaral - feliperibeirodoamaral@msn.com 
    Correção: Walison de Arruda Fernandes - wafjcf@brturbo.com

><> Supergospel.com.br - O portal da música gospel

Também para esta música: Cifra

 RECURSOS    Corrigir música | Versão para impressão | Indicar a um amigo
Copyright - 2001 - 2018 Supergospel. Todos os direitos reservados.