Twitter do SuperGospel Facebook do SuperGospel

Matérias em destaque



Esperar em Deus (Tablatura de guitarra / violão)
Metal Nobre


D#||------------------------------------------|-----------------------------| 
A#||------------------------------------------|-----------------------------| 
F#||--9-----10---------7-----9----------------|--9-----10-------5--5--4-----| 
C#||--7-----7----------5-----7----------------|--7-----7--------5--5--5-----| 
G#||----x-x----x-x-x-x---x-x---x-x-x--x-x-x-x-|----x-x----x-x-x-------------| 
D#||------------------------------------------|-----------------------------| 

-------------------------------------------|------------------------------| 
-------------------------------------------|------------------------------| 
--9-----10---------7-----9-----------------|--9-----10-------5--5-5-4-----| 
--7-----7----------5-----7-----------------|--7-----7--------5--5-5-5-----| 
----x-x----x-x-x-x---x-x---x-x-x-x-x-x-x-x-|----x-x----x-x-x--------------| 
-------------------------------------------|------------------------------| 

------------------------------------------|------------------------------| 
------------------------------------------|------------------------------| 
--9-----10---------7-----9----------------|--9-----10-------5--7-5-4-----| 
--7-----7----------5-----7----------------|--7-----7--------5--7-5-5-----| 
----x-x----x-x-x-x---x-x---x-x-x--x-x-x-x-|----x-x----x-x-x--------------| 
------------------------------------------|------------------------------| 

-------------------------------------------| 
-------------------------------------------| 
--9-----10---------7-----9-----------------| 
--7-----7----------5-----7-----------------| 
----x-x----x-x-x-x---x-x---x-x-x-x-x-x-x-x-| 
-------------------------------------------| 

-----------------------------------------------|-----|| 
-------------------------------------10--------|-----|| 
--9-----10------------------------9-----9----9-|-----|| 
--7-----7------------7-----10-7-----------10---|--7--|| 
----x-x--------7-------7--------7--------------|-----|| 
-----------------8-5-----8---------------------|-----|| 

___________________________________________________________________
Colaboração: Daniel Querino da Silva - sombrasiliadjdaniel@ig.com.br 

><> Supergospel.com.br - O portal da música gospel

Também para esta música: Cifra

 RECURSOS    Corrigir música | Versão para impressão | Indicar a um amigo
Copyright - 2001 - 2018 Supergospel. Todos os direitos reservados.