Twitter do SuperGospel Facebook do SuperGospel

Matérias em destaque



Atrás do vento (Tablatura de guitarra / violão)
Odres Novos


Bm   G  Bm   G
E|-------3-------3--|
A|---2---5---2---5--|
D|---4---5---4---5--|
G|---4-------4------|
B|------------------|
e|------------------|

Riff 1                            > > 
E|---------------------------------------|
A|--5-5-7-9--4-4-5-7--12-12-10-9--5-7-9--|
D|--7-7-9-11-6-6-7-9--14-14-12-11-7-9-11-|
G|--7-7-9-11-6-6-7-9--14-14-12-11-7-9-11-|  Repete 2x
B|---------------------------------------|     
e|---------------------------------------| 

O riff é o seguinte:
D D E F#
C# D E
A G F#
D>E E>F#

Esse Riff também é usado no meio da musica
Tambem pode ser tocado sem as 8ª de cada nota.

___________________________________________________________________
Colaboração: Anderson Toscan - andersonadestra@yahoo.com.br 
    Correção: Jônatan Kopper - jksongod@gmail.com

><> Supergospel.com.br - O portal da música gospel

Também para esta música: Cifra

 RECURSOS    Corrigir música | Versão para impressão | Indicar a um amigo | Compre este CD
Copyright - 2001 - 2018 Supergospel. Todos os direitos reservados.