Twitter do SuperGospel Facebook do SuperGospel

Matérias em destaque



Livres pra Ti (Tablatura de guitarra / violão)
Odres Novos


Solo da Introducao:

B=bend
B(1)=bend 1 tom
~~=tremolo

E|-----------------------------------------------|
A|-----------------------------------------------|
D|------------------------------7-9B-7-9B-7-9B-7-|
G|--6-6-6-7-6-6~~----6-6-6-7-6-6----------------6|
B|-----------------------------------------------|
e|-----------------------------------------------|

E|----------------------------------------------------|
A|----------------------------------------------------|
D|------------------------------7-9B-7-9B-7-9B-7-9B(1)|
G|--6-6-6-7-6-6~~----6-6-6-7-6-6----------------------|
B|----------------------------------------------------|
e|----------------------------------------------------|

___________________________________________________________________
Colaboração: Anderson Toscan - andersonadestra@yahoo.com.br 

><> Supergospel.com.br - O portal da música gospel

Também para esta música: Cifra

 RECURSOS    Corrigir música | Versão para impressão | Indicar a um amigo | Compre este CD
Copyright - 2001 - 2018 Supergospel. Todos os direitos reservados.