Twitter do SuperGospel Facebook do SuperGospel

Matérias em destaque



Autor da vida (Tablatura de guitarra / violão)
Oficina G3


 SOLO Violão

G                         D                     F9                            C    
D-------7----7----------------------------------------------------------------------------------------------
A-----8---10---10--10/12-10~--8-8--7-8-7---7------------8-10-11-12-13-14-15^--------------------------------
F-7h9------------------------------------9---9-----9-10---------------------12^-----------------------------
C-----------------------------------------------------------------------------------------------------------
G-----------------------------------------------------------------------------------------------------------
D-----------------------------------------------------------------------------------------------------------

                                           (F9)    G                          D                     
D-----------------------------------------------------------------------------------------------------------
A------------------------------------------------------------15-------13------12-----10-----8---7-----------
F----12-14-15-14-12------15-14-12-15-14-12-------12^---12/14----11/12----9/11----7/9----5/7---7---8--7-5----
C-14----------------(14)-------------------12h14--------------------------------------------------10-9-8----
G-----------------------------------------------------------------------------------------------------------
D-----------------------------------------------------------------------------------------------------------

 F9                                       C                   (F9)       G
D--------------------8-10-12-13^-13^-13^--------------------------------------------------------------------
A------8-11----8-11----------13^-13^-13^-12^----------------------------------------------------------------
F-9-10------10----------------------------------12-11-12-----12-14-12-13-15-12------------------------------
C-----------------------------------------------------------------------------------------------------------
G-----------------------------------------------------------------------------------------------------------
D-----------------------------------------------------------------------------------------------------------

Solo Do Teclado G D F9 C (F9)

___________________________________________________________________
Colaboração: José Renato Mendes Giacomino - jgiacomino@bol.com.br 
    Correção: Thiago Viana da Silva - thiago_viana_silva@hotmail.com.br
Correção: afonso - afonsodgo@hotmail.com
Correção: walace cesar do santos - walacespock@hotmail.com

><> Supergospel.com.br - O portal da música gospel

Também para esta música: Cifra

 RECURSOS    Corrigir música | Versão para impressão | Indicar a um amigo
Copyright - 2001 - 2018 Supergospel. Todos os direitos reservados.