Twitter do SuperGospel Facebook do SuperGospel

Matérias em destaque



Pirou (Tablatura de guitarra / violão)
Oficina G3


Solo: obs:(* Só o solo do violão ) 
(1:25)



   Violão                    Baixo                              Violão

E|-8-8----------|                                  |----------8-10-11p10p8-10-8-|
B|-8-8--7-7--5--|                                  |-----8-10-------------------|
G|------7-7--5--|----------------------------------|-7-9------------------------|
D|--------------|----------------------------------|----------------------------|
A|--------------|----------------------------------|----------------------------|
E|--------------|----------------------------------|----------------------------|


         Baixo                                 Violão
   
E|                        |------------------10-11-12-11-10-8----8-------|
B|                        |------10-13-10-13------------------10---10----|
G|------------------------|-9-12-----------------------------------------|
D|------------------------|----------------------------------------------|
A|------------------------|----------------------------------------------|
E|------------------------|----------------------------------------------|

         Baixo                  Violão                        

E|                      |-15-----------------------|
B|                      |-15r-13-15-13-----13~~----|
G|----------------------|---------------14---------|---------------------|
D|----------------------|--------------------------|---------------------|
A|----------------------|--------------------------|---------------------|
E|----------------------|--------------------------|---------------------|


     Violão                     Baixo                   Violão    
                                                  
E|---------------------|                    |------------------------------|
B|-8-7--7-5-7b---------|                    |--8s10-8--8-8-----5--5--------|
G|-8-7--7-5-7b---------|--------------------|--7s9--7--7-5---5----5--------|
D|---------------------|--------------------|--------------5------4--------|
A|---------------------|--------------------|---------------------5--------|
E|---------------------|--------------------|------------------------------|

       Baixo

G|----------------------|
D|----------------------|
A|----------------------|
E|----------------------|


obs: (* Este solo é do "Acustico" anterior do "Acustico ao vivo)

___________________________________________________________________
Colaboração: Mauricio J. Frigo - frigo.r@terra.com.br 

><> Supergospel.com.br - O portal da música gospel

Também para esta música: Cifra

 RECURSOS    Corrigir música | Versão para impressão | Indicar a um amigo
Copyright - 2001 - 2018 Supergospel. Todos os direitos reservados.