Twitter do SuperGospel Facebook do SuperGospel

Matérias em destaque



De olhos fechados (Tablatura de guitarra / violão)
Oficina G3


Cm
e|-----------------------------------------------
B|-----------------------------------------------
G|------5--7-8\----------------------------------
D|-----------------------------------------------
A|------------------11\--------------------------
E|-----------------------------------------------
    Cm           G#             Eb          Bb
e|-----------------------------------------------
B|--13--15--16------------------16---------------
G|---------------15--13--12-12-----15--12--10~~--
D|-----------------------------------------------
A|-----------------------------------------------
E|-----------------------------------------------
    Cm           G#          Eb          Bb 
e|----------------------------------------------
B|--13--15--16--18b--18--16------18--16--15~\---
G|---------------------------15~----------------
D|----------------------------------------------
A|----------------------------------------------
E|----------------------------------------------

___________________________________________________________________
Colaboração: Walter Maia Dutra - dutra83@hotmail.com 
    Correção: Breno Luiz Rodrigues Troccoli - brenote77@hotmail.com

><> Supergospel.com.br - O portal da música gospel

Também para esta música: Cifra

 RECURSOS    Corrigir música | Versão para impressão | Indicar a um amigo | Compre este CD
Copyright - 2001 - 2018 Supergospel. Todos os direitos reservados.