Twitter do SuperGospel Facebook do SuperGospel

Matérias em destaque



Lugar melhor (Tablatura de guitarra / violão)
Oficina G3


Solo - Lugar melhor

legenda:

> slide
/pull-off (ligado) da a palhetada so na primeira nota
b bend 


a guitarra terá que estar afinada em D



e|-------------------------------------------------
B|-------------------------------------------------
G|-------------5b/5-----------------3/5/3----------
D|----------7--------------------------------------
A|------>5----------------------5------------------
E|--------------------------6----------------------
    
e|-------------------------------------------------
B|-----------------------13------------------------
G|------------12---12>14-----12-----9/10/9premir alavanca oitava a baixo 
D|------10-----------------------------------------
A|-->8---------------------------------------------
E|-------------------------------------------------
    
e|-----------12--13-----------------------------------
B|---------------------------------13-->13/11/10------
G|------14--------------------------------------------
D|--12-----------------------15-----------------------
A|---------------------13-----------------------------
E|----------------------------------------------------


e|----------------------------------------------------
B|-------------->15/13/11-----------------------------
G|--12/10/9-----------------14/12/10------------------
D|----------------------------------------------------
A|----------------------------------------------------
E|----------------------------------------------------

e|-->13--15-15b/15-15b------------13--15--17----------
B|-----------------------------13---------------------
G|------------------------->14------------------------
D|----------------------------------------------------
A|----------------------------------------------------
E|----------------------------------------------------

e|---13------------------15b-15b/15--13—15~~----------
B|-------13-------------------------------------------
G|------------15--14----------------------------------
D|----------------------------------------------------
A|----------------------------------------------------
E|----------------------------------------------------

___________________________________________________________________
Colaboração: Dário Manuel Raposo Dantas Ricardo - dmdr@sapo.pt 

><> Supergospel.com.br - O portal da música gospel

Também para esta música: Cifra

 RECURSOS    Corrigir música | Versão para impressão | Indicar a um amigo | Compre este CD
Copyright - 2001 - 2018 Supergospel. Todos os direitos reservados.