Twitter do SuperGospel Facebook do SuperGospel

Matérias em destaque



Meu legado (Tablatura de baixo)
Oficina G3


Tempo: 2min 01s

D#|----------5-----------3-3----------|--3-3-------3--------------------|
A#|-------------5------5------5-------|------5-3-5---5-3-----3-5--------|
F |--3-3-3----------------------------|--------------------6------6-----|
C |-----------------------------------|---------------------------------|

G |------------------------------4----|--4--------6-4-------------------|
D#|----------5-----------3-3----------|-----5-3--------5-3--------------|
A#|-------------5------5------5-------|----------------------5----------|
F |--3-3-3----------------------------|---------------------------------|
C |-----------------------------------|---------------------------------|




___________________________________________________________________
Colaboração: Thonatas Reis Borges - tonclick@click21.com.br 

><> Supergospel.com.br - O portal da música gospel

Também para esta música: Cifra | Tablatura de guitarra

 RECURSOS    Corrigir música | Versão para impressão | Indicar a um amigo | Compre este CD
Copyright - 2001 - 2018 Supergospel. Todos os direitos reservados.