Twitter do SuperGospel Facebook do SuperGospel

Matérias em destaque



Até quando (Tablatura de guitarra / violão)
Oficina G3


Introdução (efeito)
                          b1/4    b1/4    
d|---------------------------------------------------------|
a|---------------------------------------------------------|
f|---------------------------------------------------------|
c|---------------------------------------------------------|
g|---------------------------------------------------------|
D|---0--5-4-3-5-3-0-3--0--2-----0--2-----------------------|

d|---------------------------------------------------------|
a|---------------------------------------------------------|
f|---------------------------------------------------------|
c|---------------------------------------------------------|
g|---------------------------------------------------------|
D|---0--5-4-3-5-3-0-3--0--2/3-0----------------------------|

                          b1/4    b1/4  
d|---------------------------------------------------------|
a|---------------------------------------------------------|
f|---------------------------------------------------------|
c|---------------------------------------------------------|
g|---------------------------------------------------------|
D|---0--5-4-3-5-3-0-3--0--2-----0--2-----------------------|

d|---------------------------------------------------------|
a|---------------------------------------------------------|
f|---------------------------------------------------------|
c|---------------------------------------------------------|
g|---------------------------------------------------------|
D|---0--5-4-3-5-3-0-3--0--2/3-0----------------------------|

   Distorção              b1/4    b1/4 
d|---------------------------------------------------------|
a|---------------------------------------------------------|
f|---------------------------------------------------------|
c|---------------------------------------------------------|
g|---------------------------------------------------------|
D|---0--5-4-3-5-3-0-3--0--2-----0--2-----------------------|

d|---------------------------------------------------------|
a|---------------------------------------------------------|
f|---------------------------------------------------------|
c|---------------------------------------------------------|
g|---------------------------------------------------------|
D|---0--5-4-3-5-3-0-3--0--2/3-0----------------------------|
                         b1/4    b1/4 
d|---------------------------------------------------------|
a|---------------------------------------------------------|
f|---------------------------------------------------------|
c|---------------------------------------------------------|
g|---------------------------------------------------------|
D|---0--5-4-3-5-3-0-3--0--2-----0--2-----------------------|

d|---------------------------------------------------------|
a|---------------------------------------------------------|
f|---------------------------------------------------------|
c|---------------------------------------------------------|
g|------------------------4--4--2--------------------------|
D|---0--5-4-3-5-3-0-3--0--2--2--0--------------------------|


*(Vocal (humanos que se amam...........(Vocal em capela .......)

*(Volta o riff principal.......vocal)


refrão (Quando....                       de viver seu amor...
d|---------------------------------------------------------|
a|---------------------------------------------------------|
f|---------------------------------------------------------|
c|----5---7---10-----8-\10---8\10---8---5-7-10-------------|
g|----3---5---8------10\8---10\8---10---3-5-8--------------|
D|---------------------------------------------------------|
                      base fazendo slide
 ******************Aqui tem um riff*********não tenho certeza se tirei certo 
                    veja Ele aparece junto com a base do refrão
    PM.....   PM.....   PM.
d|---------------------------------------------------------|
a|---------------------------------------------------------|
f|---------------------------------------------------------|
c|---------3---------5------5-..---------------------------|
g|--3-3--5----5-5--7---5-5--3-..---------------------------|
D|---------------------------------------------------------|



              antes do riff 2
d|---------------------------------------------------------|
a|---------------------------------------------------------|
f|---------------------------------------------------------|
c|------3---3-5~----3----3-3-------------------------------|
g|--3-5---5------------5------5-4-3------------------------|
D|---------------------------------------------------------|
             **essa parte riff 2

d|---------------------------------------------------------|
a|---------------------------------------------------------|
f|---------------------------------------------------------|
c|---5-7~~---5-7-5-----------------------------------------|
g|------------------7-6-5----3----5-5--3~~-----------------|
D|------------------------------5--------------------------|
                           bend=b de 1tom Reverse bend...
d|---------------------------------------------------------|
a|------------------------10-------------------------------|
f|-------5-------7--------12b-~~---------------------------|
c|-------3-------5-----------------------------------------|
g|---------------------------------------------------------|
D|---0-0-----0-0-------------------------------------------|
                                     Pm (abafando)......
d|---------------------------------------------------------|
a|---------------------------------------------------------|
f|---------------------------------------------------------|
c|---5-7~~---5-7-5-----------------------------------------|
g|------------------7-6-5----3-------2-----3---5---5-------|
D|------------------------------5----0--0--1-0-3-0-3-------|
      

d|---------------------------------------------------------|
a|---------------------------------------------------------|
f|-7\9-----------------------------------------------------|
c|-5\7-----------------------------------------------------|
g|---------------------------------------------------------|
D|---------------------------------------------------------|

d|---------------------------------------------------------|
a|---------------------------------------------------------|
f|---------------------------------------------------------|
c|---5-7~~---5-7-5-----------------------------------------|
g|------------------7-6-5----3----5-5--3~~-----------------|
D|------------------------------5--------------------------|
                          pm............................
d|---------------------------------------------------------|
a|---------------------------------------------------------|
f|-------5-------7-----------------------------------------|
c|-------3-------5-----------------------------------------|
g|------------------------5-5-3---5-5-3--5-5-3---5---------|
D|---0-0-----0-0----------3-3-1---3-3-1--3-3-1---3---------|
             
                          nesse trecho é onde entra a base
                          sobre o solo de baixo

Após a o solo de baixo repete se os riffs acima e finaliza...
Agora é só ouvir a música

___________________________________________________________________
Colaboração: Douglas Eulálio Antunes - douggibson@bol.com 
    Correção: José Renato Mendes Giacomino - jgiacomino@bol.com.br

><> Supergospel.com.br - O portal da música gospel

Também para esta música: Cifra

 RECURSOS    Corrigir música | Versão para impressão | Indicar a um amigo | Compre este CD
Copyright - 2001 - 2018 Supergospel. Todos os direitos reservados.