Twitter do SuperGospel Facebook do SuperGospel

Matérias em destaque



O teu amor (Tablatura de guitarra / violão)
Oficina G3


Solo: (02:49)


    Dsus      C9           Dsus 
E|----------------------------8-------------|
B|----------8b-8~-----6-8-6-8b-8-8-6-6-8-6~-|
G|-9b-9r-7~--------5/7-7--------------7-----|
D|------------------------------------------|
A|------------------------------------------|
E|------------------------------------------|
   C9                       Dsus      
E|---------------------------------10---------------------------|
B|--------------------13b-13r-13b~---13-10----------------------|
G|-7-5------------------------------------13-12--10h12h13p12p10-|
D|-----7-5--5--5-5----------------------------------------------|
A|--------8--5--5-8~--------------------------------------------|
E|--------------------------------------------------------------|
           C9     D                      D#          F            G           
E|-------------------------------------------------------------| Claro como o sol.....
B|----------------------------------15-17-18b(2tons)~--18~-15~-|
G|-10----10----10~~---------14-15-17---------------------------|
D|----12----12------12-14-15-----------------------------------|
A|-------------------------------------------------------------|
E|-------------------------------------------------------------|

___________________________________________________________________
Colaboração: Mauricio J. Frigo - frigo.r@terra.com.br 

><> Supergospel.com.br - O portal da música gospel

Também para esta música: Cifra

 RECURSOS    Corrigir música | Versão para impressão | Indicar a um amigo | Compre este CD
Copyright - 2001 - 2018 Supergospel. Todos os direitos reservados.