Twitter do SuperGospel Facebook do SuperGospel

Matérias em destaque



Eu sei (Tablatura de guitarra / violão)
Oficina G3


Solo:
(2:58)


E|------------------------------------------------------------------------|
B|---------------------8-8-5----------------------------------------------|
G|-----5---7p5-7s9~----9-7-5---------5------------5----------------5-7-5~-|
D|-5h7---7---------------------5s7-----5p7---5-7----7----------5-7--------|
A|-----------------------------------------7---------------5-7------------|
E|------------------------------------------------------------------------|

E|-----------------------------|------------------------------------------------|
B|----------6-5----------------|-----------5-7-5-------------------3-6-5-3-5-6~-|
G|------5-7-----7-5------------|---------7-------7---------------5--------------|
D|--5-7-------------7-5-7-5-3~-|-------7-----------7-----------5----------------|
A|-----------------------------|-5-7-9---------------9-7-3-5-7------------------|
E|-----------------------------|------------------------------------------------|

E|---------------------------------------5----8-------5-5--------|
B|-----------------------------6-----6-8---8--8brb----6-6--------|
G|-(9)7-5-7-5-3~-----------5-7---5-7----------------------7-5-7~-|
D|---------------------5-7---------------------------------------|
A|---------------------------------------------------------------|
E|---------------------------------------------------------------|

E|-8h5-5-5----8----------------13-||
B|-6-6-6-6------8brp6-8brp6----13-||
G|--------------------------7-----||
D|--------------------------------||
A|--------------------------------||
E|--------------------------------||

___________________________________________________________________
Colaboração: Mauricio J. Frigo - frigo.r@terra.com.br 

><> Supergospel.com.br - O portal da música gospel

Também para esta música: Cifra

 RECURSOS    Corrigir música | Versão para impressão | Indicar a um amigo | Compre este CD
Copyright - 2001 - 2018 Supergospel. Todos os direitos reservados.