Twitter do SuperGospel Facebook do SuperGospel

Matérias em destaque



Don't give up (Tablatura de guitarra / violão)
Oficina G3


Categoria: Tab de Guitarra
    
(Base)   
   A            Bm        G                A              E        A         D	 
e|------------------------------------------------------------------------------|
B|-10---8/7-8/7-------------------------------------------8/7-------------------| 
G|---------------9-7-9/11-9/7-9/11-7-7/9/7--------------------9/7-9----7-7/9-7--| 
D|-----------------------------------------9-7-7/9--7-7-------------9-----------|
A|------------------------------------------------------------------------------|
E|------------------------------------------------------------------------------|

Int: D9 A Bm7 Gadd9 

D9              A    Bm7     Gadd9	
Eu nunca vou me afastar de Ti 
	    D9/F#               
Já faz muito tempo que eu falei
D9              A    Bm7     Gadd9	          	        
Me lembro dos momentos junto a Ti 
 		D9/F#
Dos sonhos que nunca realizei
Bm7              F#m
Na falsa liberdade 
Bm7	    G	            A
Do \"tudo eu posso\" sem me envolver
Bm7	           F#m
Me perdi entre \"amigos\" 
Bm7	     G      A
Sozinho já não sei como voltar

D9      A  	        Bm7    Gadd9
Please, don´t give up now
	  D9   A          Bm7   	         
It´s not easy, but I believe in you
  G              Em
I trust in you, forever
D9	A                        Bm7	Gadd9
Please, I can see through your eyes 
	D9   A       Bm7
Your dreams, that never came true 
  G                   D Riff 1
I´II help you, Don´t Give up   
Riff1
B-5-------8---------7---------5------
G---7--------7----------7------------    2 Vezes 
D------7-------7-----------7---------



D9              A    Bm7      Gadd9
Hoje posso ver o seu amor 
       D/F#
Como pude um dia me esquecer
	D9        Bm7           Gadd9
De braços abertos você pagou
               D/F#                
O preço do perdão que me salvou
Bm7	   F#m
  Te vejo tão longe 
Bm7	           G              A   
Quero andar contigo, voltar atrás
Bm7	         F#m
  Não sei como fazê-lo 
Bm7           G       A
Me guiarei em seu amor por mim   


A Base do solo é a mesma do refrão.
e|-----------------------------------------------------------------------------------|
B|-20--19-20-19-20-19--15/17---------------------------------------------------------|
G|----------------------------17-15-17-17-15-17/19-15-14-15-14-----------------------|
D|-------------------------------------------------------------16-14-16-14fullbend-14|
A|-----------------------------------------------------------------------------------|
E|-----------------------------------------------------------------------------------|
 
e|-----------------------------------------------------------------------------------|
B|--7-8-7----------------------------------------------------------------------------|
G|----------9-7-9fullbend-----7-9-7--------------------------------------------------|
D|-----------------------------------9-7-9-7-----------------------------------------|
A|-----------------------------------------------------------------------------------|
E|-----------------------------------------------------------------------------------|

 Acordes.
D9       Bm7       Gadd9     D9/F#
e|5     e|2        e|0       e|0
B|5     B|3        B|0       B|3
G|7     G|2        G|2       G|2
D|7     D|4        D|0       D|0
A|5     A|2        A|0       A|0
                   E|3       E|2

___________________________________________________________________
Colaboração: Leonardo Azevedo de Andrade - leonardoellus@yahoo.com.br 
    Correção: Diego Fernando Merege de Mello - chrdiego@yahoo.com.br

><> Supergospel.com.br - O portal da música gospel

Também para esta música: Cifra

 RECURSOS    Corrigir música | Versão para impressão | Indicar a um amigo | Compre este CD
Copyright - 2001 - 2018 Supergospel. Todos os direitos reservados.