Twitter do SuperGospel Facebook do SuperGospel

Matérias em destaque



Minha luta (Tablatura de guitarra / violão)
Oficina G3


Este dedilhado faz parte da introdução da música. Você deve utilizar
as notas mais graves(baixo)como pedal fixo dedilhando as outras notas.

Intro:  d|---5-----7-----8---8-----7-----5----------7----5-------------------|
        A|-----5-----5-----5---5-----5--------------9------5------------------|
	F|-------5-----5---------5-----5---------7-----------7---------------|
	C|-------------------------------------7---------------7--------------|
	G|---0---------------8---------------------------5--------------------|
	D|-----------------------------------0--------------------------------|
             
  
d|---5-----8---7p5-----------5---------------------------------------|
A|-----5-----5-----5-----5-----5-------------5h6p5------3---3-----3---|
F|-------5-------------5---5---------------7------7-------0-----0----|
C|---------------------------------------5----------5---------------|
G|---0---------------8-----------8-7-5------------------3-----------|
D|------------------------------------------------------------3-----|


___________________________________________________________________
Colaboração: Fabinho  - ffender@ig.com.br 
    Correção: Augusta S. T. Cezar - LlLLLLLL@.ig.com.br
Correção: Tiago Ferreira Alves - sem-treta@bol.com.br

><> Supergospel.com.br - O portal da música gospel

Também para esta música: Cifra

 RECURSOS    Corrigir música | Versão para impressão | Indicar a um amigo | Compre este CD
Copyright - 2001 - 2018 Supergospel. Todos os direitos reservados.