Twitter do SuperGospel Facebook do SuperGospel

Matérias em destaque



Contra-cultura (Tablatura de guitarra / violão)
Oficina G3


(INTRODUÇÃO)   
Naum se esqueça !!!
h- hammer on
p- pull-off
b- bend
h- hold
/- slide
~ -vibrato
( )-tocar todas as notas juntas


Pestana!!!
01 riff intro
  Bm F#m A  E
E|--7--2--5-----------------------------------------|   
B|--7--2--5-----------------------------------------|   
G|--7--2--5--1--------------------------------------|   
D|--7--2--5--2--------------------------------------|   
A|--9--4--7--2--------------------------------------|   
E|--7--2--5-----------------------------------------|  
02 riff intro
  Bm F#m A  E
E|--7--2--------------------------------------------|   
B|--7--2--2-----------------------------------------|   
G|--7--2--2--1--------------------------------------|   
D|--9--4--2--2--------------------------------------|   
A|--9--4-----2--------------------------------------|   
E|--7--2--------------------------------------------|  
Uma vez cada

Bm                        F#m
O mundo não consegue entender
A                         E
O motivo que nos faz viver
Bm                       F#m
Olhando sempre para frente
A                       E
Ter algo mais, ser tão diferente

Bm                   F#m
Dos homens de suas más ações
A                      E
Grande fonte de decepções
Bm                             A
Onde não há vida pra se enxergar
F#m                             G        A
Mas um motivo que nos faz cantar

Bm  F#m    A                  E
Vida,         nós temos vida, com Jesus
Bm  A   F#m                G          A
Vida,        Ele nos trouxe lá na cruz

Solo base: Bm A E G

Solo:

E|------------------------------------------------------------|   
B|--------------------------------------9-11-(12-13-14)~------|  
G|-7h9-7-----7-7h9-7-----9-(9-10-11)-10-----------------------|  
D|-7h9-7-7/9---7h9-7-7/9--------------------------------------| 
A|------------------------------------------------------------|   
E|------------------------------------------------------------|  

E|------------------------------------------------------------|   
B|----9-11--(12-13-14)~-12-10-12--(20-19-18)~-20-19-18-17-15--|  
G|-10---------------------------------------------------------|  
D|------------------------------------------------------------| 
A|------------------------------------------------------------|   
E|------------------------------------------------------------|  

E|------------------------------------------------------------|   
B|-(15-16-17)~-15----15---------------------------------------|  
G|----------------16----16~---------14------------------------|  
D|--------------------------14-16-14--14-(13-14)~-------------| 
A|------------------------------------------------------------|   
E|------------------------------------------------------------|  

E|---------------------------------------------------------------|   
B|---9--------------9--------------------------------------------|  
G|-7---7-(7-8-9)~-7---7-(7-8-9)~-0-(7-8-9)~-7-----9-8------------|  
D|--------------------------------------------9-8-----7-(7-8-9)~-| 
A|---------------------------------------------------------------|   
E|---------------------------------------------------------------|  

Fim

___________________________________________________________________
Colaboração: Jonatas de Souza lemos - Gohas@globo.com 

><> Supergospel.com.br - O portal da música gospel

Também para esta música: Cifra | Tablatura de baixo

 RECURSOS    Corrigir música | Versão para impressão | Indicar a um amigo | Compre este CD
Copyright - 2001 - 2018 Supergospel. Todos os direitos reservados.