Twitter do SuperGospel Facebook do SuperGospel

Matérias em destaque



Fé (Tablatura de guitarra / violão)
Oficina G3


-8^5-----------------------------|-11^8------------------------------------|
-----8^5-----8^5-----------------|------11^8------11^8---------------------|
---------7^5-----7^5-----7^5-----|-----------10^8------10^8------10^8------|
---------------------7^5-----7^5-|--------------------------10^8------10^8-|
---------------------------------|-----------------------------------------|
---------------------------------|-----------------------------------------|

-13^10-------------------------------------------|-16^13-------------18^15--------17----17-20-|
-------13^10-------13^10-------------------------|-------16^13-------------18^15-----17-------|
-------------12^10-------12^10-------12^10-------|-------------15^13--------------------------|
-------------------------------12^10-------12^10-|--------------------------------------------|
-------------------------------------------------|--------------------------------------------|
-------------------------------------------------|--------------------------------------------|

-20[24]-20^17----17-----------|-17-----------------------------------------|---5-----7-----8-9----------|
--------------20----20-20[22]-|----20^17-19[22]-19^17----19----------------|---------------------12[15]-|
------------------------------|-----------------------19----17-18----18-17-|-6---6^7---7^8---9----------|
------------------------------|-----------------------------------19-------|----------------------------|
------------------------------|--------------------------------------------|----------------------------|
------------------------------|--------------------------------------------|----------------------------|

-10------------------------------------|--------------------------------------------------|
----12[15]-12^10-10-------12----13[16]-|--------------------------------------------------|
--------------------12^14----14--------|-8-7-8^5-----8-7-8^5-----8-7-8^5-----8-7-8^5^4----|
---------------------------------------|---------7^5---------7^5---------7^5-----------5--|
---------------------------------------|--------------------------------------------------|
---------------------------------------|--------------------------------------------------|

--------------------|-7^10^15^12-----------------------------------------------------------|
---8----7-----7--5--|------------15^12-----------------------------------------------------|
-9---9--7--7-----5--|------------------14^12---------------------------------7[9]---7[9]---|
--------------------|------------------------15-14-15^12-9-7-9^5---------------------------|
--------------------|--------------------------------------------7^5-----------------------|
--------------------|------------------------------------------------8^5^8-----------------|

LEGENDA
[]- levantar a nota anterior até que ela alcance a nota que está 
dentro da chave!!!

___________________________________________________________________
Colaboração: Willians de Lima Cruz - willians_cruz@hotmail.com 

><> Supergospel.com.br - O portal da música gospel

Também para esta música: Cifra

 RECURSOS    Corrigir música | Versão para impressão | Indicar a um amigo | Compre este CD
Copyright - 2001 - 2018 Supergospel. Todos os direitos reservados.