Twitter do SuperGospel Facebook do SuperGospel

Matérias em destaque



Glória (Tablatura de guitarra / violão)
Oficina G3


D#||---------------------|---------------------------|
A#||---------------------|---------------------------|
F#||---------------------|---------------------------|
C#||---------------------|----9--9--9--7h8-7---------|
G#||--2------------2--2--|----7--7------------10--7--|
D#||--0------------0--0--|---------------------------|


                                                    
-----------------------|---------------------------|
-----------------------|---------------------------|
-----------------------|---------------------------|
--7--------------------|----9--9--9--7h8-7---------|
-----5--7--------2--2--|----7--7------------10--7--|
-----------------0--0--|---------------------------|


                                                
-----------------------|-----------------------|
-----------------------|-----------------------|
-----------------------|-----------------------|
--7--------------------|----7----9----6--7--9--|
-----5--7--------2--2--|----5----7----4--5--7--|
-----------------0--0--|-----------------------|


                                     
------------------------------------|
------------------------------------|
--------------12-11-9---------14-12-|
--9--12--9------------12-10-9-------|
--7--10--7--------------------------|
------------------------------------|


                                                   
--------------------------------------------------|
--------------------------------------------------|
--11----------16-14-12----------17-16-14----------|
-----14-12-11----------15-14-12----------17-15-14-|
--------------------------------------------------|
--------------------------------------------------|


                                                  
------------------------|------------------------|
------------------------|------------------------|
--19--------------------|------------------------|
------------------------|------------------------|
------------2--2--------|----------2----2--------|
------------0--0--3--0--|--3--0----0----0--3--0--|


                                                 
-----------------------|------------------------|
-----------------------|------------------------|
-----------------------|------------------------|
-------7---------------|----------6----7--6--4--|
-------5------2--------|----------4----5--4--2--|
--3-----------0--3--0--|--3--0------------------|


                                                   
-------------------------|------------------------|
-------------------------|------------------------|
-------------------------|------------------------|
--6--4--2----------------|------------------------|
--4--2--0----2--2--------|----------2----2--------|
-------------0--0--3--0--|--3--0----0----0--3--0--|


                                                  
------------------------|------------------------|
------------------------|------------------------|
------------------------|------------------------|
------------------------|------------------------|
----------2----2--------|----------2----2--------|
--3--0----0----0--3--0--|--3--0----0----0--3--0--|


                                                   
---------------5--------|----------------5--------|
----------2----5--7--8--|--10--2----2----5--7--8--|
----------2----6--7--7--|--9---2----2----6--7--7--|
----------2----7--7--7--|--7---2----2----7--7--7--|
----------0----0--0--0--|--0---0----0----0--0--0--|
--3--0------------------|-------------------------|


                                                   
-------------------------|------------------------|
--10--2------------------|------------------------|
--9---2------------------|------------------------|
--7---2------------------|------------------------|
--0---0----2----2--------|----------2----2--------|
-----------0----0--3--0--|--3--0----0----0--3--0--|


                                                  
------------------------|------------------------|
------------------------|------------------------|
------------------------|------------------------|
------------------------|------------------------|
----------2----2--------|----------2----2--------|
--3--0----0----0--3--0--|--3--0----0----0--3--0--|


                                            
----------------------|------4--------4----|
----------4--------4--|------5--------5----|
----------5--------5--|------4--------4----|
----------6--------6--|--------------------|
----------6--------6--|------4--------4----|
--3--0----4--------4--|--------------------|


                                        
-------------------|-------------------|
--2----------------|--2----------------|
--2----------------|--2----------------|
--4----------------|--4----------------|
--4----------------|--2----------------|
--2----------------|-------------------|


                                                            
------------------------------------------------------------
--------------------------------------------------------14-1
-----------------------------13-14-16----------13-14-16-----
--------------------13-14-16----------13-14-16--------------
-----------12-14-16-----------------------------------------
--12-14-16--------------------------------------------------


                                           
--------------------|---------------------|
--12~---------------|---------------------|
--------------------|---------------------|
--------------------|---------------------|
--------------------|--2------------2--2--|
--------------------|--0------------0--0--|


                                                    
---------------------------|-----------------------|
---------------------------|-----------------------|
---------------------------|-----------------------|
----9--9--9--7h8-7---------|--7--------------------|
----7--7------------10--7--|-----5--7--------2--2--|
---------------------------|-----------------0--0--|


                                                         
---------------------------|-----5------------5---------|
---------------------------|--2--5--7--10--2--5--7--10--|
---------------------------|--2--6--7--9---2--6--7--9---|
----9--9--9--7h8-7---------|--2--7--7--7---2--7--7--7---|
----7--7------------10--7--|--0--0--0--0---0--0--0--0---|
---------------------------|----------------------------|


                                        
-------------------|-------------------|
--2----------------|-------------------|
--2----------------|-------------------|
--2----------------|--2----------------|
--0----------------|--2----------------|
-------------------|--0----------------|


                                                  
---------------------|---------------------------|
---------------------|---------------------------|
---------------------|---------------------------|
---------------------|----9--9--9--7h8-7---------|
--2------------2--2--|----7--7------------10--7--|
--0------------0--0--|---------------------------|


                                                  
---------------------|---------------------------|
---------------------|---------------------------|
---------------------|---------------------------|
---------------------|----9--9--9--7h8-7---------|
--2------------2--2--|----7--7------------10--7--|
--0------------0--0--|---------------------------|


                                                            
--4----------------|-------------------|-------------------|
--4----------------|--5----------------|-------------------|
--5----------------|--6----------------|--2----------------|
--6----------------|--6----------------|--4----------------|
--6----------------|--4----------------|--4----------------|
--4----------------|-------------------|--2----------------|


                                        
-------------------|-------------------|
--2----------------|-------------------|
--4----------------|-------------------|
--4----------------|-------------------|
--2----------------|--2----------------|
-------------------|--0----------------|


                                                  
------------------------|------------------------|
------------------------|------------------------|
------------------------|------------------------|
------------------------|------------------------|
----2----2--------------|----2----2--------------|
----0----0--3--0--3--0--|----0----0--3--0--3--0--|


                                                  
------------------------|------------------------|
------------------------|------------------------|
------------------------|------------------------|
------------------------|------------------------|
----2----2--------------|----2----2--------------|
----0----0--3--0--3--0--|----0----0--3--0--3--0--|


                                        
-------------------|-------------------|
--2----------------|--2----------------|
--2----------------|--2----------------|
--2----------------|--2----------------|
--0----------------|--0----------------|
-------------------|-------------------|


                                                  
------------------------|------------------------|
------------------------|------------------------|
------------------------|------------------------|
------------------------|----6----7----9--9--12--|
--2---------------------|----4----5----7--7--10--|
--0------0--3--0--3--0--|------------------------|


                                                  
------------------------|------------------------|
------------------------|------------------------|
------------------------|------------------------|
--12--14--12------------|------------------------|
--10--12--10------------|----2----2--------------|
------------------------|----0----0--3--0--3--0--|


                                             
------------------------|-------------------|
------------------------|--4----------------|
------------------------|--5----------------|
------------------------|--6----------------|
----2----2--------------|--6----------------|
----0----0--3--0--3--0--|--4----------------|


                                                            
-------------------|-------------------|-------------------|
--5----------------|-------------------|--2----------------|
--6----------------|--2----------------|--4----------------|
--6----------------|--4----------------|--4----------------|
--4----------------|--4----------------|--2----------------|
-------------------|--2----------------|-------------------|


                                                
--------------------|--------------------------|
--------------------|--------------------------|
--------------------|--------------------------|
--2------------4----|--6-----------6-----------|
--2------------2----|--4--4--4--4--4--4--4--4--|
--0-----------------|--------------------------|


                                        
-------------------|-------------------|
-------------------|--2----------------|
--2----------------|--4----------------|
--4----------------|--4----------------|
--4----------------|--2----------------|
--2----------------|-------------------|


                                                
--------------------|--------------------------|
--------------------|--------------------------|
--------------------|--------------------------|
--2------------4----|--6-----------6-----------|
--2------------2----|--4--4--4--4--4--4--4--4--|
--0-----------------|--------------------------|


                                        
-------------------|-------------------|
-------------------|--2----------------|
--2----------------|--4----------------|
--4----------------|--4----------------|
--4----------------|--2----------------|
--2----------------|-------------------|


                     
-------------------||
-------------------||
-------------------||
--2----------------||
--2----------------||
--0----------------||

___________________________________________________________________
Colaboração: Thiago Faraone Munck - thifm@ibest.com.br 

><> Supergospel.com.br - O portal da música gospel

Também para esta música: Cifra

 RECURSOS    Corrigir música | Versão para impressão | Indicar a um amigo | Compre este CD
Copyright - 2001 - 2018 Supergospel. Todos os direitos reservados.