Twitter do SuperGospel Facebook do SuperGospel

Matérias em destaque



Indiferença (Tablatura de guitarra / violão)
Oficina G3


E||--------------------------------|--------------------------------|
B||--------------------------------|--------------------------------|
G||--------------------------------|--------------------------------|
D||--------------------------------|--------------------------------|
A||----------2-------5-4-2-4--2----|---------2---------------2------|
E||--0-2-3-4---4-3-2-------------0-|---2-3-4---4-3-2-5-2-3-4---3--0-|


                                                                  
-------------------------------|---------------------------------|
-------------------------------|---------------------------------|
-------------------------------|---------------------------------|
-------------------------------|---------------------------------|
---------2-------5-4-2-4--2--4-|--5-7-5-4-7-5-4---5-4-----2------|
---2-3-4---4-3-2---------------|----------------7-----7-5---3--0-|



                                                                 
-------------------------------|--------------------------------|
-------------------------------|--------------------------------|
-------------------------------|--------------------------------|
-------------------------------|--------------------------------|
---------2-------5-4-2-4--2----|---------2---------------2------|
---2-3-4---4-3-2-------------0-|---2-3-4---4-3-2-5-2-3-4---3--0-|


                                                                  
-------------------------------|---------------------------------|
-------------------------------|---------------------------------|
-------------------------------|---------------------------------|
-------------------------------|---------------------------------|
---------2-------5-4-2-4--2--4-|--5-7-5-4-7-5-4---5-4-----2------|
---2-3-4---4-3-2---------------|----------------7-----7-5---3--0-|



                                                       
--------------------------|---------------------------|
--------8-----------8-----|--------8-----------9---15b|
--------7-----------7-----|--------7-----------8------|
--------6-----------6-----|--------6-----------7------|
--------7-----------7-----|--------7-----------8------|
---0-0-----0--0--0------0-|---0-0-----0--0--0---------|


                                                                       
--------12-----------12--------------|--------------------------------|
-----------15-12--------15-12--------|--------------------------------|
-----------------14b----------14-14b-|--12~---------------------------|
-------------------------------------|------14-12---------------------|
-------------------------------------|------------14-12-10b-----------|
-------------------------------------|----------------------12~-------|


                                                                                
|--------------------------|-------------------------|-------------------------|
|---------8-----------8----|--------8-----------9----|--------8-----------8----|

|*--------7-----------7----|--------7-----------8----|--------7-----------7----|
|*--------6-----------6----|--------6-----------7----|--------6-----------6----|
|---------7-----------7----|--------7-----------8----|--------7-----------7----|
|---0--0-----0--0--0-------|--0--0-----0--0--0-------|--0--0-----0--0--0-------|


                              

----------------------------||
--------8--------12--12-----||
--------7--------14b-14b---*||
--------6------------------*||
--------7-------------------||
--0--0-----0--0-------------||


                                                               
--24-23-21----------23-21-19----------21-19-17----------------|
-----------24-22-21----------22-21-19----------21-19-17-------|
--------------------------------------------------------16~---|
--------------------------------------------------------------|
--------------------------------------------------------------|
--------------------------------------------------------------|


                                                                             
------------------------|------------------------|--------------------------|
--3----3--3--3----3---2-|---2-2--2--2--2----2----|--------------------------|
--3----3--3--3----3---2-|---2-2--2--2--2----2----|--------------------------|
--2----2--2--2----2---1-|---1-1--1--1--1----1----|-----------9----------10--|
--3----3--3--3----3---2-|---2-2--2--2--2----2----|-----------7----------8---|
------------------------|------------------------|--0--0--0-------0--0------|


                                                                          
-----------------------|------------------------|------------------------|
-----------------------|--------8----------8----|--------8----------9----|
-----------------------|--------7----------7----|--------7----------8----|
----------9----10------|--------6----------6----|--------6----------7----|
----------7----8-------|--------7----------7----|--------7----------8----|
----0--0---------------|--0--0-------0--0-------|--0--0-------0--0-------|


                                                                           

------------------------|------------------------|------------------------|
--------8----------8----|--------8----------9----|--3----3--3--3----3---2-|
--------7----------7----|--------7----------8----|--3----3--3--3----3---2-|
--------6----------6----|--------6----------7----|--2----2--2--2----2---1-|
--------7----------7----|--------7----------8----|--3----3--3--3----3---2-|
--0--0-------0--0-------|--0--0-------0--0-------|------------------------|


                                                     
------------------------|---------------------------|
---2-2--2--2--2----2----|---------------------------|
---2-2--2--2--2----2----|---------------------------|
---1-1--1--1--1----1----|----------------------5~---|
---2-2--2--2--2----2----|--5-7--5-7--5-7--5-7-------|
------------------------|---------------------------|


                                                                           
------------------------------|-----------------------|-------------------|
------------------------------|--3----3--3--3----3----|--2----------------|
------------------------------|--3----3--3--3----3----|--2----------------|
----------------5-------------|--2----2--2--2----2----|--1----------------|

--5-7--5-7--5-7---7-5---------|--3----3--3--3----3----|--2----------------|
----------------------7-5-3~--|-----------------------|-------------------|


                                                                  
--------------------------------|--------------------------------|
--------------------------------|--------------------------------|
--------------------------------|--------------------------------|
--------------------------------|--------------------------------|
----------2-------5-4-2-4--2----|---------2---------------2------|
--0-2-3-4---4-3-2-------------0-|---2-3-4---4-3-2-5-2-3-4---3--0-|


                                                                  
-------------------------------|---------------------------------|
-------------------------------|---------------------------------|
-------------------------------|---------------------------------|
-------------------------------|---------------------------------|
---------2-------5-4-2-4--2--4-|--5-7-5-4-7-5-4---5-4-----2------|
---2-3-4---4-3-2---------------|----------------7-----7-5---3--0-|


                                                     
--------------------------|-------------------------|
--------8-----------8-----|--------8-----------9----|
--------7-----------7-----|--------7-----------8----|
--------6-----------6-----|--------6-----------7----|
--------7-----------7-----|--------7-----------8----|
---0-0-----0--0--0------0-|---0-0-----0--0--0-------|


                                                          
|--------------------------|-----------------12--12-----||
|---------8-----------8----|--------8--------15--15b----||
|*--------7-----------7----|--------7------------------*||
|*--------6-----------6----|--------6------------------*||
|---------7-----------7----|--------7-------------------||
|---0--0-----0--0--0-------|--0--0-----0--0-------------||


                                                                     
-------------------------|--------------------|---------------------|
--------8-----------9----|--15----------------|--12-----------------|
--------7-----------8----|--------------------|------------9--------|
--------6-----------7----|--------------------|---------------------|
--------7-----------8----|--------------------|---------------------|
--0--0-----0--0--0-------|--------------------|---------------------|


                                                                             
------------------------|------------------------|--------------------------|
--3----3--3--3----3---2-|---2-2--2--2--2----2----|--------------------------|
--3----3--3--3----3---2-|---2-2--2--2--2----2----|--------------------------|
--2----2--2--2----2---1-|---1-1--1--1--1----1----|-----------9----------10--|
--3----3--3--3----3---2-|---2-2--2--2--2----2----|-----------7----------8---|
------------------------|------------------------|--0--0--0-------0--0------|


                                                                    
-----------------------|-----------------------|-------------------|
-----------------------|--3----3--3--3----3----|--2----------------|
-----------------------|--3----3--3--3----3----|--2----------------|
----------9----10------|--2----2--2--2----2----|--1----------------|
----------7----8-------|--3----3--3--3----3----|--2----------------|
----0--0---------------|-----------------------|-------------------|


                                                                  
---------------------------------|-------------------------------|
---------------------------------|-------------------------------|
---------------------------------|-------------------------------|
------------------5--------------|------------------5------------|
------5-----5-6-7---7-6-5--------|------5-----5-6-7---7-6-5------|
--5-8---7-8---------------8-5--3-|--5-8---7-8---------------8----|


                                                                  
---------------------------------|-------------------------------|
---------------------------------|-------------------------------|
---------------------------------|-------------------------------|

------------------5--------------|------------------5------------|
------5-----5-6-7---7-6-5--------|------5-----5-6-7---7-6-5------|
--5-8---7-8---------------8-5--3-|--5-8---7-8---------------8----|


                                                                    
|----------------------------------|-------------------------------|
|----------------------------------|-------------------------------|
|*---------------------------------|-------------------------------|
|*------------------5--------------|------------------5------------|
|-------5-----5-6-7---7-6-5--------|------5-----5-6-7---7-6-5------|
|---5-8---7-8---------------8-5--3-|--5-8---7-8---------------8----|


                                                                    
---------------------------------|--------------------------------||
---------------------------------|--------------------------------||
---------------------------------|-------------------------------*||
------------------5--------------|------------------5------------*||
------5-----5-6-7---7-6-5--------|------5-----5-6-7---7-6-5-------||
--5-8---7-8---------------8-5--3-|--5-8---7-8---------------8-----||


                                                        
----------------------------|--------------------12----|
--12------------------------|-----------------12----12-|
--14~-----------14r14-12-14~|------------14b-----------|
----------------------------|--------------------------|
----------------------------|--------------------------|
----------------------------|--------------------------|



                                                    
----------------------------|----------------------|
--18r-----18-15-17------20--|--20b---20~-----------|
----------------------------|----------------------|
----------------------------|----------------------|
----------------------------|----------------------|
----------------------------|----------------------|


                                                                     
--21-19-17-16-16-21-19-17-16-16-21-19-17----------------------------|
-----------------------------------------21-19-17-19-17-16----------|
-----------------------------------------------------------18-16-14-|
--------------------------------------------------------------------|
--------------------------------------------------------------------|
--------------------------------------------------------------------|


                                                 
------------------------------------------------|
------------------------------------------15~---|
--18-16-14--------------------------------------|
-----------18-16-14-----------------------------|
--------------------17-16-14--------------------|
-----------------------------17-16-12~----------|



                                                               
-----12-------12-14-12-14-15-14-12----------------------------|
--------14-15----------------------15-14-12-15-14-12----------|
-----------------------------------------------------14-12-11-|
--------------------------------------------------------------|
--------------------------------------------------------------|
--------------------------------------------------------------|


                                     
-------12-------12~-----------12h15-|
----------15b-----------12h15-------|
--14b-------------------------------|
------------------------------------|

------------------------------------|
------------------------------------|


                                                                                
--17h15-17h15h12h15h17h15-17h15h12h17h18h17-18h17-15h12h15h17h18h17h15h12h15h17-
--------------------------------------------------------------------------------
--------------------------------------------------------------------------------
--------------------------------------------------------------------------------
--------------------------------------------------------------------------------
--------------------------------------------------------------------------------



                           
--------------------------|
----15--15r-15--15~-------|
--------------------------|
--------------------------|
--------------------------|
--------------------------|


                                                                         
--19-17-15-14-17-15-14--19-17-15-14-17-15-14----15-14-------------------|
---------------------------------------------17-------17-15-14----------|
---------------------------------------------------------------16-14-12-|

------------------------------------------------------------------------|
------------------------------------------------------------------------|
------------------------------------------------------------------------|


                                                                                
----------------------------------------|-----------------14-17b---17~----19b--|
-----------12~-----14~--12~-------------|--------14-15-17----------------------|
--16-14-12-12~-----14---12-----------12-|--14-16-------------------------------|
----------------14-------------14-16----|--------------------------------------|
----------------------------------------|--------------------------------------|
----------------------------------------|--------------------------------------|



                                                             
----19-18-17----17~-------|---------------------------------|
--------------------------|---------------------------------|
--------------------------|---------------------------------|
--------------------------|------------------5--------------|
--------------------------|------5-----5-6-7---7-6-5--------|
--------------------------|--5-8---7-8---------------8-5--3-|


                                                                  
-------------------------------|---------------------------------|

-------------------------------|---------------------------------|
-------------------------------|---------------------------------|
------------------5------------|------------------5--------------|
------5-----5-6-7---7-6-5------|------5-----5-6-7---7-6-5--------|
--5-8---7-8---------------8----|--5-8---7-8---------------8-5--3-|


                                                                    
-------------------------------||----------------------------------|
-------------------------------||----------------------------------|
-------------------------------||*---------------------------------|
------------------5------------||*------------------5--------------|
------5-----5-6-7---7-6-5------||-------5-----5-6-7---7-6-5--------|
--5-8---7-8---------------8----||---5-8---7-8---------------8-5--3-|


                                                                  
-------------------------------|---------------------------------|
-------------------------------|---------------------------------|
-------------------------------|---------------------------------|
------------------5------------|------------------5--------------|
------5-----5-6-7---7-6-5------|------5-----5-6-7---7-6-5--------|
--5-8---7-8---------------8----|--5-8---7-8---------------8-5--3-|



                                  
--------------------------------||
--------------------------------||
-------------------------------*||
------------------5------------*||
------5-----5-6-7---7-6-5-------||

--5-8---7-8---------------8-----||

___________________________________________________________________
Colaboração: Jorge Bachtold - jorgebachtold@terra.com.br 
    Correção: GEOVANE BELUSSO FRIES - geovane@mponline.com.br

><> Supergospel.com.br - O portal da música gospel

Também para esta música: Cifra

 RECURSOS    Corrigir música | Versão para impressão | Indicar a um amigo | Compre este CD
Copyright - 2001 - 2018 Supergospel. Todos os direitos reservados.